Me and My Friends

intro=repeat 2 times then       do this 8 times
g----------9-|-------------11---|-----11p9--------------
d---710-----|-----710---------|-------------10--------
a-0----------|--0---------------|-----------------------
e------------|------------------|-----------------------

chorus"me and my me and my me and my"part
5 times then do this 2 times
g---------------|---------------------------
d--7p5----------|-----------5h7-------------
a---------7-----|---5-5-5-------5-5---------
e---------------|---------------------------

verse-this is all slapped
g------------------------------------------
d------------------------------------------
a-----------5-5-5-5-------------5-5--------
e-0--0-0----------------0-0-0--------------

from PePPeRs 01@aol.com
WP Facebook Auto Publish Powered By : XYZScripts.com