Me & My Friends
Album: The Uplift Mofo Party Plan
Transcribed by: Greenie 12
Email: onkel44@hotmail.com

http://www.geocities.com/onkel442003/index.html

Intro: 

e-|----------------------------------------|-----------------------------------------|-
B-|--13-x-x-12-x-x-13-x-x-13-x-x-13-x-x-x--|--3----3--3--3--3--3--3--5h7~~~~~--------|-
G-|--12-x-x-12-x-x-12-x-x-12-x-x-12-x-x-x--|--2----2--2--2--2--2--2--5h7~~~~~--------|-
D-|--11-x-x-11-x-x-11-x-x-11-x-x-11-x-x-x--|--0----0--0--0--0--0--0------------------|-
A-|--12-----12-----12-----12-----12--------|-----------------------------------------|-
E-|----------------------------------------|-----------------------------------------|-

e-|----------------------------------------|-------------------------------------------|-
B-|--13-x-x-12-x-x-13-x-x-13-x-x-13-x-x-x--|--3----3--3--3--3--3--3--12h14~~~~~--------|-
G-|--12-x-x-12-x-x-12-x-x-12-x-x-12-x-x-x--|--2----2--2--2--2--2--2--12h14~~~~~--------|-
D-|--11-x-x-11-x-x-11-x-x-11-x-x-11-x-x-x--|--0----0--0--0--0--0--0--------------------|-
A-|--12-----12-----12-----12-----12--------|-------------------------------------------|-
E-|----------------------------------------|-------------------------------------------|-

e-|----------------------------------------|--------------------------------------|-
B-|--13-x-x-12-x-x-13-x-x-13-x-x-13-x-x-x--|--3----3--3--3--3--5h7--5~~~~~--------|-
G-|--12-x-x-12-x-x-12-x-x-12-x-x-12-x-x-x--|--2----2--2--2--2--5h7--5~~~~~--------|-
D-|--11-x-x-11-x-x-11-x-x-11-x-x-11-x-x-x--|--0----0--0--0--0---------------------|-
A-|--12-----12-----12-----12-----12--------|--------------------------------------|-
E-|----------------------------------------|--------------------------------------|-

e-|----------------------------------------|-------------------------------------------|-
B-|--13-x-x-12-x-x-13-x-x-13-x-x-13-x-x-x--|--3----3--3--3--3--3--3--------------------|-
G-|--12-x-x-12-x-x-12-x-x-12-x-x-12-x-x-x--|--2----2--2--2--2--2--2--12/14~~~~~--------|-
D-|--11-x-x-11-x-x-11-x-x-11-x-x-11-x-x-x--|--0----0--0--0--0--0--0--------------------|-
A-|--12-----12-----12-----12-----12--------|-------------------------------------------|-
E-|----------------------------------------|-------------------------------------------|-

e-|-------------------)----------------|-
B-|--5---------------7)----------------|-
G-|--5---------------7-----------------|-
D-|------------------------------------|-
A-|------------------------------------|-
E-|------------------------------------|-

Verse:

e-|---------------------------------|---------------------------------|-
B-|----------6--6-6-------6--6-6-6--|----------6--6-6-------6--6-6-6--|-
G-|----------5--5-5-------5--5-5-5--|----------5--5-5-------5--5-5-5--|-
D-|----------4--4-4-------4--4-4-4--|----------4--4-4-------4--4-4-4--|-
A-|----------5--5-5-------5--5-5-5--|----------5--5-5-------5--5-5-5--|-
E-|--0-0-0-0--------0-0-0-----------|--0-0-0-0--------0-0-0-----------|-

Chorus:

     w/Variations     
e-|----------------------------------------|-----------------------------------------|-
B-|--13-x-x-12-x-x-13-x-x-13-x-x-13-x-x-x--|--3----3--3--3--3--3--3--5h7~~~~~--------|-
G-|--12-x-x-12-x-x-12-x-x-12-x-x-12-x-x-x--|--2----2--2--2--2--2--2--5h7~~~~~--------|-
D-|--11-x-x-11-x-x-11-x-x-11-x-x-11-x-x-x--|--0----0--0--0--0--0--0------------------|-
A-|--12-----12-----12-----12-----12--------|-----------------------------------------|-
E-|----------------------------------------|-----------------------------------------|-


e-|----------------------------------------|-------------------------------------------|-
B-|--13-x-x-12-x-x-13-x-x-13-x-x-13-x-x-x--|--3----3--3--3--3--3--3--12h14~~~~~--------|-
G-|--12-x-x-12-x-x-12-x-x-12-x-x-12-x-x-x--|--2----2--2--2--2--2--2--12h14~~~~~--------|-
D-|--11-x-x-11-x-x-11-x-x-11-x-x-11-x-x-x--|--0----0--0--0--0--0--0--------------------|-
A-|--12-----12-----12-----12-----12--------|-------------------------------------------|-
E-|----------------------------------------|-------------------------------------------|-


e-|----------------------------------------|--------------------------------------|-
B-|--13-x-x-12-x-x-13-x-x-13-x-x-13-x-x-x--|--3----3--3--3--3--5h7--5~~~~~--------|-
G-|--12-x-x-12-x-x-12-x-x-12-x-x-12-x-x-x--|--2----2--2--2--2--5h7--5~~~~~--------|-
D-|--11-x-x-11-x-x-11-x-x-11-x-x-11-x-x-x--|--0----0--0--0--0---------------------|-
A-|--12-----12-----12-----12-----12--------|--------------------------------------|-
E-|----------------------------------------|--------------------------------------|-


e-|----------------------------------------|-------------------------------------------|-
B-|--13-x-x-12-x-x-13-x-x-13-x-x-13-x-x-x--|--3----3--3--3--3--3--3--12h14~~~~~--------|-
G-|--12-x-x-12-x-x-12-x-x-12-x-x-12-x-x-x--|--2----2--2--2--2--2--2--12h14~~~~~--------|-
D-|--11-x-x-11-x-x-11-x-x-11-x-x-11-x-x-x--|--0----0--0--0--0--0--0--------------------|-
A-|--12-----12-----12-----12-----12--------|-------------------------------------------|-
E-|----------------------------------------|-------------------------------------------|-


e-|-------------------)----------------|-
B-|--5---------------7)----------------|-
G-|--5---------------7-----------------|-
D-|------------------------------------|-
A-|------------------------------------|-
E-|------------------------------------|-



After Guitar Solo:


e-|-----------------------------------|----------------------------------------------------|-
B-|-----------------------------------|----------------------------------------------------|-
G-|--9-x-x-9-x-x-9-x-x-9-x-x-9-x-x-x--|--2----2--2--2--2--2--2--2--2--2--2--2--2--2--2--2--|-
D-|--9-x-x-9-x-x-9-x-x-9-x-x-9-x-x-x--|--2----2--2--2--2--2--2--2--2--2--2--2--2--2--2--2--|-
A-|--7-x-x-7-x-x-7-x-x-7-x-x-7-x-x-x--|--0----0--0--0--0--0--0--0--0--0--0--0--0--0--0--0--|-
E-|-----------------------------------|----------------------------------------------------|-


e-|-----------------------------------|----------------------------------------------------|-
B-|-----------------------------------|----------------------------------------------------|-
G-|--9-x-x-9-x-x-9-x-x-9-x-x-9-x-x-x--|--2----2--2--2--2--2--2--2--2--2--2--2--2--2--2--2--|-
D-|--9-x-x-9-x-x-9-x-x-9-x-x-9-x-x-x--|--2----2--2--2--2--2--2--2--2--2--2--2--2--2--2--2--|-
A-|--7-x-x-7-x-x-7-x-x-7-x-x-7-x-x-x--|--0----0--0--0--0--0--0--0--0--0--0--0--0--0--0--0--|-
E-|-----------------------------------|----------------------------------------------------|-


e-|-------------------------------|-
B-|--5----------------------------|-
G-|--5----------------------------|-
D-|--5----------------------------|-
A-|-------------------------------|-
E-|-------------------------------|-



Interlude:


e-|-----------------------------------|-----------------------------------|-
B-|-----------------------------------|-----------------------------------|-
G-|-----------------------------------|-----------------------------------|-
D-|------0-----0-----0-----0-----0----|------0-----0-----0-----0-----0----|-
A-|--3/5---3/5---3/5---3/5---3/5------|--3/5---3/5---3/5---3/5---3/5------|-
E-|-----------------------------------|-----------------------------------|-



Last Chorus:


e-|----------------------------------------|-----------------------------------------|-
B-|--13-x-x-12-x-x-13-x-x-13-x-x-13-x-x-x--|--3----3--3--3--3--3--3--5h7~~~~~--------|-
G-|--12-x-x-12-x-x-12-x-x-12-x-x-12-x-x-x--|--2----2--2--2--2--2--2--5h7~~~~~--------|-
D-|--11-x-x-11-x-x-11-x-x-11-x-x-11-x-x-x--|--0----0--0--0--0--0--0------------------|-
A-|--12-----12-----12-----12-----12--------|-----------------------------------------|-
E-|----------------------------------------|-----------------------------------------|-


e-|----------------------------------------|-------------------------------------------|-
B-|--13-x-x-12-x-x-13-x-x-13-x-x-13-x-x-x--|--3----3--3--3--3--3--3--12h14~~~~~--------|-
G-|--12-x-x-12-x-x-12-x-x-12-x-x-12-x-x-x--|--2----2--2--2--2--2--2--12h14~~~~~--------|-
D-|--11-x-x-11-x-x-11-x-x-11-x-x-11-x-x-x--|--0----0--0--0--0--0--0--------------------|-
A-|--12-----12-----12-----12-----12--------|-------------------------------------------|-
E-|----------------------------------------|-------------------------------------------|-


e-|----------------------------------------|--------------------------------------|-
B-|--13-x-x-12-x-x-13-x-x-13-x-x-13-x-x-x--|--3----3--3--3--3--5h7--5~~~~~--------|-
G-|--12-x-x-12-x-x-12-x-x-12-x-x-12-x-x-x--|--2----2--2--2--2--5h7--5~~~~~--------|-
D-|--11-x-x-11-x-x-11-x-x-11-x-x-11-x-x-x--|--0----0--0--0--0---------------------|-
A-|--12-----12-----12-----12-----12--------|--------------------------------------|-
E-|----------------------------------------|--------------------------------------|-


e-|----------------------------------------|-------------------------------------------|-
B-|--13-x-x-12-x-x-13-x-x-13-x-x-13-x-x-x--|--3----3--3--3--3--3--3--12h14~~~~~--------|-
G-|--12-x-x-12-x-x-12-x-x-12-x-x-12-x-x-x--|--2----2--2--2--2--2--2--12h14~~~~~--------|-
D-|--11-x-x-11-x-x-11-x-x-11-x-x-11-x-x-x--|--0----0--0--0--0--0--0--------------------|-
A-|--12-----12-----12-----12-----12--------|-------------------------------------------|-
E-|----------------------------------------|-------------------------------------------|-


e-|-------------------------------------------|-
B-|--13-x-x-13-x-x-13-x-x-13-x-x-13-13-13-13--|-
G-|--12-x-x-12-x-x-12-x-x-12-x-x-12-12-12-12--|-
D-|--11-x-x-11-x-x-11-x-x-11-x-x-11-11-11-11--|-
A-|--12-----12-----12-----12-----12-12-12-12--|-
E-|-------------------------------------------|-

Lascia un commento

Facebook Auto Publish Powered By : XYZScripts.com