Minor Thing

from "By The Way"
Music by KiedisFleaFruscianteSmith
Warner Bros. Music 2002


****************************************************************
version 1 :

By
  Luca

Intro and verse:
  F#m                   A        D           D7   D6
E-------------------------------------------9-9-9--7-7------------------
B--10-10-10-10-10 10-10--14--7-7-7-7-7-7-7--7-7-7--7-7------------------
G--11-11-11-11-11-11-11--14--7-7-7-7-7-7-7--7-7-7--7-7------------------
D--11-11-11-11-11-11-11--14--7-7-7-7-7-7-7--7-7-7--7-7------------------
A--9--9--9--9--9--9--9---12--5-5-5-5-5-5-5------------------------------
E-----------------------------------------------------------------------

(when john say "uuuuuuuu" play F#m  A  D as intro)

bridge
E--141414141414141414141414-17171717191919------------------------------
B--141414141414141414141414-17171717191919------------------------------

solo:
E--b13-----12------------------------------------b12----------------------
B-------14------------------b14--------------b14-----------------b14------
G-------------b11-11-11-11------13-11--11-11----------b13-11--11-----13-11

E-------------------------------------------------------------------------
B-------------------------------------------------------------------------
G--11-13-9-11-6-(6)-------------------------------------------------------


outro :

Guitar1:
       E                    F#m             F#m7
E-----------------------------------------12-12-12-12-12-----------------
B--9-9-9-9-9-9-9-9-9-9--10-10-10-10-10-10-10-10-10-10-10-----------------
G--9-9-9-9-9-9-9-9-9-9--11-11-11-11-11-11-11-11-11-11-11-----------------
A--9-9-9-9-9-9-9-9-9-9--11-11-11-11-11-11-11-11-11-11-11-----------------
D--7-7-7-7-7-7-7-7-7-7--12-12-12-12-12-12-12-12-12-12-12-----------------
E------------------------------------------------------------------------

Guitar2 x2:
B---------5-b7---------b5-3-2---------------------------------------------
G--4--4-4-------6---4-----------------------------------------------------



****************************************************************
****************************************************************
version 2 :

by daniele (sir psycho)

Introduction                
  Cm#  E  A


e---14----------17-------19------|
B--14----------17-------19-------|
G--------------------------------|
D--------------------------------|
A--------------------------------|
E--------------------------------|



solo 1 


e---14-----12-----14----------------------|
B---------------------------14------------|
G-----------------------------------11----|
D-----------------------------------------|
A-----------------------------------------|
E-----------------------------------------|

e--------------------------------------------------|
B-----------------------------14-------------------|
G-11--11--11---9----11-----------14---11-11--------|
D--------------------------------------------------|
A--------------------------------------------------|
E--------------------------------------------------|

e--------------------------------------------------|
B---14--17--------------------9--------------------|
G-------------14-----11-11-------9----11-----------|
D-------------------------------------------9------|
A--------------------------------------------------|
E--------------------------------------------------|


solo 2

e--------------------------------------|
B------------------------------------- |
G-------------------------9------------|
D--9--------7---9--11---------11-------|
A--------------------------------------|
E--------------------------------------|


e----------------------------------|
B----------------------------------|
G---------------9----7-------------|
D--9-----7----------------11-------|
A----------------------------------|
E----------------------------------|

e-----------------------------------|
B-----------------------------------|
G---------9----7--------------------|
D---9---------------11--------------|
A-----------------------------------|
E-----------------------------------|

Lascia un commento

Facebook Auto Publish Powered By : XYZScripts.com