Mommy Wheres Daddy?

Album: The Red Hot Chili Peppers (1984)
Capitol Records
Tabbed By: Eddie G. Chitarraman0990@yahoo.com

~ Hold out
/ Slide up
\ Slide down
h Hammer on
p Pull off
. Stuccato

This is my first tab, so bear with me. 

Just drums for about 10 seconds...

Intro:
e:-//13----------------------------------------------------------------
B:-----13-12\-------6-8h9p86-----------------------------------------
G:----------------/7------------5-5/7-5--------------------------------
D:--------------------------------------6p5--6p5-5p3-3-----------------
A:-----------------------------------------------------5-5-3h5-3-3-3/5-
E:---------------------------------------------------------------------

Chords that are repeated A LOT:
e:-7-7-7-7.--7-7-7-7.-
B:-6-6-6-6.--6-6-6-6.-
G:-5-5-5-5.--5-5-5-5.-
D:--------------------
A:--------------------
E:--------------------

 After a while it changes to:
e:-7~9~
B:-6~8~
G:-5~7~
D:-----
A:-----
E:-----

Repeat the chords over and over again, switching to the variation after a ton of 
repeats. Just listen to the song to see how many times you actually have to 
repeat these parts.

At 2:48,
Solo:
e:-//13---------------------------------------------
B:-----13-12\-------6-8h9p86----------------------
G:----------------/7------------5-5/7-5-------------
D:--------------------------------------6p5--6p5-53
A:--------------------------------------------------
E:--------------------------------------------------

e:--------------------/13---------------------------
B:--------------------/12-13-12\-12p11h12-12\-----
G:---------------------------12\-12p11h12-12\-----
D:-3------------------------------------------------
A:---3h5p3h5-3-3h4h5--------------------------------
E:--------------------------------------------------

e:--------7b-----------8--------------
B:-----6b----8--6h8p6--8p6-----------
G:-5h7--------------------------------    
D:------------------------------------
A:------------------------------------
E:------------------------------------
(At this part there are a bunch of notes that i couldnt figure out, so just kinda mess around with some of the notes that they do play)
e:-------------------------7~~
B:-------------------------6~~
G:----------------------------
D:-5p3-5p3-5p3----------------
A:-------------5p3-3h5--------
E:----------------------------

Lascia un commento

Facebook Auto Publish Powered By : XYZScripts.com