My Friends
From the album One Hot Minute
Tabbed by Martin Peters

Bass
Moderately slow

Intro:
G-|-10h12--10-|--------10--10-|-----------9-|-----9-10--10-|
D-|-----------|-12--12--------|--------10---|-12-----------|
A-|-----------|---------------|-10--10------|--------------|
E-|-----------|---------------|-------------|--------------|


G-|--------------|-------10--10-|----------------------|-----9-10--10-|
D-|--------10-10-|-12--12-------|-12--12-------10---10-|-12-----------|
A-|-10--10-------|--------------|--------10h12---12----|--------------|
E-|--------------|--------------|----------------------|--------------|


G-|--------10h12--10-9---|--------10--9-10-|-12---------|-------10-|-------------|
D-|-------------------12-|-12--12----------|-----12--10-|-12--12---|-------------|
A-|-10--10---------------|-----------------|------------|----------|-10------3-4-|
E-|----------------------|-----------------|------------|----------|--------5----|


Verse bass figure:
G-|-------------|-----------------|------------|------4/5--4----|
D-|-------3--3--|-5--5------------|---2-3--3-4-|-5--5---------7-|
A-|-5---5-----5-|------3-3----4-3-|-5----------|----------------|
E-|-------------|------------5----|------------|----------------|


G-|---------------|-----------|
D-|-------3-----3-|-5---5-----|
A-|-5---5-----5---|--------3--|
E-|---------------|-----------|


Chorus:
G-|-----------|--------------|-------------|------------|
D-|--------5--|-------7-7----|----------7--|-7-7---7-7--|
A-|-3---3-----|-0--0-0----0--|-3--3-3/5----|-----0----0-|
E-|-----------|--------------|-------------|------------|


G-|-----------|------9-9-9-|----------7---|-------------|
D-|-------5---|----7--------|--------------|-7-7-7-7-7---|
A-|-3---3-----|-0-----------|-3--3-3/5---5-|-----------0-|
E-|-----------|-------------|--------------|-------------|


Guitar solo:
G-|---------------|--------------------|---------------|------------------|
D-|---------------|-------12----10-----|---------------|----10-12---------|
A-|-5-5-5-7-8-8-9-|-10-10----10----12-|-5--5-7--8--10-|-10-------2-3-3-4-|
E-|---------------|--------------------|---------------|------------------|


G-|------------------|--------------------|------------------|---------------|
D-|------------------|--------------------|------------------|---------------|
A-|-5-5-5-7-8-8-8----|-10-10-10-0-2-3-3-4-|-5-5-5-7-8-8--8-9-|-10-10--10--8--|
E-|---------------10-|--------------------|------------------|---------------|


Bridge:
G-|-----------------|-------------------------|-----------------|-----------------|
D-|-----------------|-------------------------|-----------------|-----------------|
A-|-7-7-7-7-7-7-7-7-|-10-10-10-10-10-10-10-10-|-9-9-9-9-9-9-9-9-|-8-8-8-8-8-8-8-8-|
E-|-----------------|-------------------------|-----------------|-----------------|


G-|-----------------|-----------------|-------------------|--------------------|
D-|-----------------|-----------------|-------------------|-----------10-------|
A-|-----------10----|-----------9-----|-------------------|-8-8-8-8-8----8-87-|
E-|-8-8-8-8-8-----8-|-7-7-7-7-7----7-|-1-1-1-1-1-1-1-1-/-|--------------------|


Outro:
G-|-----------------|--------------------------|
D-|-----------------|-5-5-5-5-9/10-10-10-10-10-|
A-|-5-5-5-5-8-8-8-8-|--------------------------|
E-|-----------------|--------------------------|
Play four times.


End (last two bars):
G-|----------|-19-19--19--|
D-|-0--------|------------|
A-|----------|------------|
E-|----------|------------|

Lascia un commento

Facebook Auto Publish Powered By : XYZScripts.com