My Lovely Man

From the album BloodSugarSexMagik
Tabbed by Martin Peters
Bass.
Moderately fast

Main Bass figure:
G-|--------------|----------7-------|--------------|------------------|
D-|--------------|-7-5--7/9---9/7-5-|--------------|------------------|
A-|-7-5--7-5-7-5-|------------------|-7-5--7-5-7-5-|----------5-------|
E-|--------------|------------------|--------------|-5-3--5/7---7/5-3-|

Interlude after first verse:
G-|-----------------|-----------------|
D-|-----------------|-----------------|
A-|-7-5-7-5-7-5-7-5-|-7-5-7-5-7-5-7-5-|
E-|-----------------|-----------------|

Chorus:
G-|--------------|--------------|-------------------------|
D-|--------------|--------------|-------------------------|
A-|--------------|--------------|-------------------------|
E-|-5-3-5-3--355-|-7--7-7-7-777-|-10h12 121212 10h1212-12-|
Play this part with slight variations throughout the song.

Guitarsolo:
G-|---------------77-99-|---------------77---|
D-|----555-777-999------|----555-777-999--99-|
A-|-777-----------------|-777----------------|
E-|---------------------|--------------------|
Repeat the two bars 3 times

Rest of the guitarsolo:
G-|--------------|-----------------|
D-|--------------|-----------------|
A-|-7-5--7-5-7-5-|---------5-------|
E-|--------------|-5-3--5/7--7/5 3-|
Repeat 4 times

Last four bars:
G-|------------|-----------|---------------|
D-|------------|-----------|---------------|
A-|------------|-----------|---------------|
E-|-x-5-x5--5--|-x-7--7--7-|--12--12---12--|

Lascia un commento

Facebook Auto Publish Powered By : XYZScripts.com