My Lovely Man

From the album Blood Sugar Sex Magik
Tabbed by Otto Brandt (osmo_brand@hotmail.com)

Main guitar part with overdrive
e |---------------|------------------|----------------|----------------|
B |---------------|------------------|----------------|----------------|
G |---------------|----------7-------|----------------|----------------|
D |---------------|--7-5-7/9--9/7-5--|----------------|----------------|
A |-7-5--7-5-7-5--|------------------|--7-5--7-5-7-5--|--------5-------|
E |---------------|------------------|----------------|-5-3-5/7-7/5-3--|

e |---------------|-------------10----------|---------------|------------------|
B |---------------|--10-8-b10/12--10r-10-8--|---------------|------------------|
G |---------------|-------------------------|-9-7--9-7-9-7--|---------7--------|
D |---------------|-------------------------|---------------|--7-5-7/9--9/7-5--|
A |-7-5--7-5-7-5--|-------------------------|---------------|------------------|
E |---------------|-------------------------|---------------|------------------|

Interlude after first verse
e |------------------|------------------|
B |------------------|------------------|
G |------------------|------------------|
D |------------------|-6-4-6-4-6-4-6-4--|
A |-7-5-7-5-7-5-7-5--|------------------|
E |------------------|------------------|

Chorus
e |---8-8-8--8-8-8-|--10-10-10--10-10-10-|----------------------|-------------------|
B |---8-8-8--8-8-8-|--10-10-10--10-10-10-|------12-12---12-12---|------12-12--12-12-|
G |-(6)------------|-(8)-----------------|------12-12---12-12---|------12-12--12-12-|
D |-(5)------------|-(7)-----------------|-12h14------14--------|-12h14-----14------|
A |-(7)------------|-(9)-----------------|----------------------|-------------------|
E |--5-------------|--7------------------|----------------------|-------------------|

The end in E is played with plenty of variations for instance try this lick & chord
e |-----------12-12--|
B |--14p12----14p12--|
G |-------12--12-12--|
D |------------------|
A |------------------|
E |------------------|

If you have any comments, corrections 
or addi(c)tions, please mail me.

Lascia un commento

Facebook Auto Publish Powered By : XYZScripts.com