Nevermind - Bass Tab
From the album Freaky Styley
Tabbed by Otto Brandt (osmo_brand@hotmail.com)

Verse basic riff 1

G |--9---------|
D |------------|
A |----7-------|
E |-----(0)5p7-|

Variation this is played after first verse and under guitar solo

G |-------------|
D |-------------|
A |--7----------|
E |----0-5p7----|

Interlude with plenty of variations - NEVERMIND...

G |----------|
D |----------|
A |--9--9----|
E |----------|

Lascia un commento

WP Facebook Auto Publish Powered By : XYZScripts.com