Nevermind
Wha-Wha Semi-Bloquée

Riff

e-|---------- 
B-|----------
G-|--9----9--  etc...
D-|--9----9--
A-|--9----9--
E-|--10---10-

Refrain 

e|--- ----------------- 
B|--- ----------------- 
G|-9- -----------------
D|-9- -----------------
A|-9- -----------------
E|--- -----------------

Pont


e|---------------------------------------------
B|--------------------------------------------- 
G|-12--9---12--4---x-x-x-x-x-x-12--12-9--------
D|-12--9---12--4---x-x-x-x-x-x-12--12-9--------
A|-10--7---10--6---x-x-x-x-x-x-10--10-7--------
E|---------------------------------------------


e|---------------- --- 
B|---------------- ---
G|------7/97----- -9-
D|--7/9-------9/7- ---
A|---------------- ---
E|---------------- ---


Tablatures de Joe Le Tordu.

Lascia un commento

Facebook Auto Publish Powered By : XYZScripts.com