Nobody Weird Like Me
tabbed by Truijllo

It's easier to play than to tab this song!
Flea probably use all finger style ( style that consist playing string with 
4 fingers or sometimes with 5 finger ), that's the sound more similar

Verse 1
G |---5---7----5---7----5---7---5---*7-----5---7-----...--12-12^^-------
D |-0---0---0----0---0----0---0---*----*0----0---0---...----------------
A |--------------------------------------------------...----------------
E |--------------------------------------------------...----------------
chorus
G |---------------------------------------------------------------------
D |---------------------------------------------------------------------
A |-3----5---3----------------------------------------------------------
E |---0--------0---3---5------------------------------------------------
bridge
G |-------------7-7-9---------------------------------------------------
D |----7-7--9-9---------------------------------------------------------
A |--7------------------------------------------------------------------
E |---------------------------------------------------------------------
solo :
impossible to realize!  :o) I tab here the live part( taken in live box )
...that is the circus jingle

G |-12-11-10-11-10-9-8-7-6-7-8-7-6-7-6-5-4-3-2-3------------------------
D |---------------------------------------------------------------------
A |---------------------------------------------------------------------
E |---------------------------------------------------------------------
    P  P  P  P  P  P P P P P P P P P P P P P P P  

Lascia un commento

Facebook Auto Publish Powered By : XYZScripts.com