On Mercury

from "By The Way"
Music by KiedisFleaFruscianteSmith
Warner Bros. Music 2002


*****************************************************
version 1 :

Tabbed By Paul Heaney

Main Riff: Repeat.

e--2-x-x-2-x-x-x3-3-3x-x-5-x-x-5-x-x-x-2-3-2-x-x-|
B--3-x-x-3-x-x-x3-3-3x-x-5-x-x-5-x-x-x-2-3-2-x-x-|
G--4-x-x-4-x-x-x4-4-4x-x-6-x-x-6-x-x-x-3-4-3-x-x-|
D--4-x-x-4-x-x-x5-5-5x-x-7-x-x-7-x-x-x-4-5-4-x-x-|
A--2-----2---------------7-----7-------4-5-4-----|
E------------------------------------------------|

Bridge:

"Come again and tell me what you're going through"

e--3-x-x-3-x-3-3-x-5-3-x-x-2-x-x-2-x-0-0-0-0-0-0-0-0-|
B--3-x-x-3-x-3-3-x-5-3-x-x-2-x-x-2-x-2-2-2-2-2-2-2-2-|
G--4-x-x-4-x-4-4-x-6-4-x-x-3-x-x-3-x-3-3-3-3-3-3-3-3-|
D--5-x-x-5-x-5-5-x-7-5-x-x-4-x-x-4-x-4-4-4-4-4-4-4-4-|
A--5-----5---5-5---7-5-----4-----4---4-4-4-4-4-4-4-4-|
E----------------------------------------------------|

Chorus:

e--2-2-2-2-x-x-5-5-5-5-x-x-7-7-7-7-x-x-3-3-3-3-x-x-|
B--3-3-3-3-x-x-7-7-7-7-x-x-8-8-8-8-x-x-3-3-3-3-x-x-|
G--4-4-4-4-x-x-7-7-7-7-x-x-9-9-9-9-x-x-4-4-4-4-x-x-|
D--4-4-4-4-x-x-7-7-7-7-x-x-9-9-9-9-x-x-5-5-5-5-x-x-|
A--2-2-2-2-----5-5-5-5-----7-7-7-7-----5-5-5-5-x-x-|
E--------------------------------------------------|

The chorus ends like this:

e--2-2-2-2-x-x-5-5-5-5-x-x-------|
B--3-3-3-3-x-x-7-7-7-7-x-x-------|
G--4-4-4-4-x-x-7-7-7-7-x-x-7\3--|
D--4-4-4-4-x-x-7-7-7-7-x-x-7\4--|
A--2-2-2-2-----5-5-5-5-----7\4--|
E--------------------------5\2--|

(bob_bobiadas@hotmail.com)

******************************************************
******************************************************
version 2 :

tab by Ilias

Verse: 
Bm - G - A - F# 

Pre Chorus: 
G - F# (x2) 

Chorus: 
Bm - D - A - Em 
Bm - D - A - F# 

by Ilias

Lascia un commento

Facebook Auto Publish Powered By : XYZScripts.com