Organic Anti-Beat Box Band
From the Album "The Uplift Mofo Party Plan"
Tabbed by C.Deppisch

  Intro:
   +   ' ' +  + + +   +   ' ' +   '+    '+  +   ' ' +  + + +
G ------------------------------------------------------------
D ---X-2-2--------------X-2-2---X-5---X-7-----X-2-2-----------
A ------------5---5------------------------------------5---5--
E -0-------0----0-----0-------0----0-----0--0-------0----0----
   +   ' ' + +  + + +
G ----------------------I
D ---X-2-2--------------I
A ----------------------I
E -0-------0-0--5-4-3---I
  Verse: Repeat several times
   +   ' ' +  + + +   +   ' ' +   '+    '+  +   ' ' +  + + +
G ------------------------------------------------------------
D ---X-2-2--------------X-2-2---X-5---X-7-----X-2-2-----------
A ------------5---5------------------------------------5---5--
E -0-------0----0-----0-------0----0-----0--0-------0----0----
   +   ' ' + +  + + +
G ----------------------I
D ---X-2-2--------------I
A ----------------------I
E -0-------0-0--5-4-3---I
  Chorus:
   +    '+   +    '+   +    '+    +    '+    +    '+   +    '+
G -----------------------------------------------X7--------X7-
D -----X9--------X9--------X9---------X9----------------------
A -------------------------------------------3/5---5---3/5---5
E -5/7---7---5/7---7---5/7---7---X5/7---7---------------------

G ---------------------------I
D ---------------------------I
A -5/7-7-7--5/7--5/7--5/7----I
E ---------------------------I
  Coda:
G ------------------------------------------------------------
D -2/4-2--------------------2/4-2--------------------2/4-2----
A -------5--4---------------------5--4---------------------5--
E ------------7--5-5--7--3-------------7--5-5--7--3-----------

G -------------------------------------------I
D -----------------2/4-2---------------------I
A -4---------------------5--4----------------I
E ---7--5-5--7--3-------------7--5-5--7--3---I

Lascia un commento

Facebook Auto Publish Powered By : XYZScripts.com