Title: Otherside
Album: Californication
Year: 1999
Tabbed By: Jordan Strand (js187@hotmail.com)

Intro: (Clean)
e|-------------------------------------|
B|-------------------------------------|
G|-------------------------------------|
D|--------7-7---10-9-7-----------------|
A|--7-7-7--------------7--------5-5-5--|
E|-------------------------------------|

e|-------------------------------------|
B|-------------------------------------|
G|-------------------------------------|
D|--------7-7---10-9-7-----------------|
A|--7-7-7--------------7-7-7----5-5-5--|
E|-------------------------------------|
   How Long, How Long, Will I slide, seperate my

e|-------------------------------------|
B|-------------------------------------|
G|-------------------------------------|
D|--------7-7---10-9-7-----------------|
A|--7-7-7--------------7-7-7----5-5-5--|
E|-------------------------------------|
   side.		I don't. I Don't believe it's


e|-------------------------------------|
B|-------------------------------------|
G|---------------9-9-9-----------------|
D|--------7-7------------9-9-9---------|
A|--7-7-7------------------------------|
E|-------------------------------------|
   Bad. 	 Slit My throat, it's all I ever.
Verse:
e|-------------------------------------15-----------------------------------------15---|
B|--------13-------------------12-----------------------13---------------------12------|
G|-------------------------------------------------------------------------------------|
D|-------------------------------------------------------------------------------------|
A|---0-------------------------------------------0-------------------------------------|
E|-------------------------------------------------------------------------------------|
1: I heard your voice through a photograph 	Thought it up and brought up the past
2: Centuries are what it meant to me 		A cemetery where I marry the sea

e|-------------------------------------15----------------3------------------0------------|
B|--------13-------------------12------------------------3------------------1------------|
G|-------------------------------------------------------0------------------2------------|
D|-------------------------------------------------------0------------------2------------|
A|---0---------------------------------------------------2------------------0------------|
E|-------------------------------------------------------3------------------0------------|
 Once you know you can never go back          I've gotta take it on the otherside
 Stranger things could never change my mind   I've gotta take it on the otherside  


e|-----------3------------------0------------|
B|-----------3------------------1------------|
G|-----------0------------------2------------| (After verse 2)
D|-----------0------------------2------------|
A|-----------2------------------0------------|
E|-----------3------------------0------------|      
           Take it on the otherside 
	   Take it on		Take it on 
Chorus:
e|-------------------------------------|
B|-------------------------------------|
G|-------------------------------------|
D|--------7-7---10-9-7-----------------|
A|--7-7-7--------------7-7-7----5-5-5--|
E|-------------------------------------|
How Long, How Long, Will I slide, seperate my
			      
e|-------------------------------------|
B|-------------------------------------|
G|-------------------------------------|
D|--------7-7---10-9-7-----------------|
A|--7-7-7--------------7-7-7----5-5-5--|
E|-------------------------------------|
side.		I don't. I Don't believe it's

e|-------------------------------------|
B|--------------------------8-8-8-8----|
G|------------------9-9-9--------------|
D|--------7-7--------------------------|
A|--7-7-7------------------------------|
E|-------------------------------------|
Bad. 	        Slit My throat, it's all I ever.

Verse:
e|-----------------------------------------15-----------------------------------------15---|
B|------------13-------------------12-----------------------13---------------------12------|
G|-----------------------------------------------------------------------------------------| (4th
D|-----------------------------------------------------------------------------------------|verse
A|-(x-x)-0-------------------------------------------0-------------------------------------|only)
E|-----------------------------------------------------------------------------------------|
3: Pour my life into a paper cup           The ashtray’s full and I’m spillin’ my guts 
4: Scarlet starlet and she’s in my bed     A candidate for my soul mate bled 

e|-------------------------------------15----------------3------------------0------------|
B|--------13-------------------12------------------------3------------------1------------|
G|-------------------------------------------------------0------------------2------------|
D|-------------------------------------------------------0------------------2------------|
A|---0---------------------------------------------------2------------------0------------|
E|-------------------------------------------------------3------------------0------------|
  She wants to know am I still a slut		I’ve gotta take it on the otherside 
  Push the trigger and pull the thread		I’ve gotta take it on the otherside

e|-----------3------------------0------------|
B|-----------3------------------1------------|
G|-----------0------------------2------------| (After verse 4)
D|-----------0------------------2------------|
A|-----------2------------------0------------|
E|-----------3------------------0------------|      
           Take it on the otherside 
	   Take it on the otherside 
	   Take it on		Take it on 

Chorus
e|-------------------------------------|
B|-------------------------------------|
G|-------------------------------------|
D|--------7-7---10-9-7-----------------|
A|--7-7-7--------------7-7-7----5-5-5--|
E|-------------------------------------|
   How Long, How Long, Will I slide, seperate my

e|-------------------------------------|
B|-------------------------------------|
G|-------------------------------------|
D|--------7-7---10-9-7-----------------|
A|--7-7-7--------------7-7-7----5-5-5--|
E|-------------------------------------|
   side.		I don't. I Don't believe it's


e|-------------------------------------|
B|-------------------------------------|
G|---------------9-9-9-----------------|
D|--------7-7------------9-9-9---------|
A|--7-7-7------------------------------|
E|-------------------------------------|
   Bad. 	 Slit My throat, it's all I ever.

Bridge: (Distortion)
e|------------------------------------------------------|
B|------------------------------------------------------|
G|---9--9--9--------------9--9--9----12--9--9----9--9--9|
D|---9--9--9-----------------------------7--7-----------|
A|---7--7--7-----------------------------7--7-----------|
E|------------------------------------------------------|

e|----------------------|
B|----------------------|
G|---9-----9-----9------|
D|---9-----9-----9------|
A|---7-----7-----7------|
E|----------------------|
  Turn me on, take me for a hard ride 

e|----------------------|
B|----------------------|
G|-9------9------9------|
D|----------------------|
A|----------------------|
E|----------------------|
  Burn me out leave me on the otherside

e|--------------------------|
B|--------------------------|
G|---12-----------9------9--|
D|----------------7------7--|
A|----------------7------7--|
E|--------------------------|
I yell and tell it that it's not my friend

e|-----------------------------------------------------|
B|-----------------------------------------------------|
G|-------------9--------------9--------------9---------|
D|-----------------------------------------------------|
A|-----------------------------------------------------|
E|-----------------------------------------------------|
I tear it down I tear it down and then it's born again

Bridge Ending / Outro
e|-----------------------------------------------------------------|
B|-----------------------------------------------------------------|
G|----------------9---9--9-9-9-12-9---9--9-9-9-12-9-9--12-9-9--12-9|
D|-7---7--7-7-7----------------------------------------------------|
A|-----------------------------------------------------------------|
E|-----------------------------------------------------------------|


Chorus, with Outro fading in
End on:

e|---------------------|
B|---------------------|
G|-----9--9--9--9------|
D|-----7--7--7--7---7--|
A|-----7--7--7--7---7--|
E|------------------5--|

----------------------------------------------------------------------------

Second version:

Otherside-Red Hot Chili Peppers

Hey guys this is the "Otherside"tablature, it sounds very good, this is my OWN WORK!Have fun!
Cozzi Fulvio-Naples
zell_ff8@libero.it


Intro
Chorus
--------------------------------------------------------------------------------------------
--------------------------------------------------------------------------------------------
--------------------------------------------------------------------------------------------
----------------7----7-------9-----7---5-------------------------------------------------
----7---7---7-------------------------------7----7----7----7----9----9----9/7----------
--------------------------------------------------------------------------------------------

Play this for three times, on the 4th one there's a variation

--------------------------------------------------------------------------------------------
--------------------------------------------------------------------------------------------
------------------------------------9----9----9----9--------------------------------------
----------------7----7----7----------------------------9----9----9---9------------------
----7---7---7-----------------------------------------------------------------------------
--------------------------------------------------------------------------------------------

Verse 1

At the end of the verses play this:

------------------15------------
--------12-----------------------
----------------------------------
----------------------------------
----------------------------------
----------------------------------

Chorus

--------------------------------------------------------------------------------------------
--------------------------------------------------------------------------------------------
--------------------------------------------------------------------------------------------
----------------7----7-------9-----7---5-------------------------------------------------
----7---7---7-------------------------------7----7----7----7----9----9----9/7----------
--------------------------------------------------------------------------------------------

Play this for three times, on the 4th one there's another variation


--------------------------------------------------------------------------------------------
--------------------------------------------------------------------------------------------
------------------------------------8----8----8----8--------------------------------------
----------------7----7----7----------------------------9----9----9---9------------------
----7---7---7-----------------------------------------------------------------------------
--------------------------------------------------------------------------------------------

Verse2
The same tablature of the verse 1

------------------15------------
--------12-----------------------
----------------------------------
----------------------------------
----------------------------------
----------------------------------


Chorus 

The same of the Chorus

--------------------------------------------------------------------------------------------
--------------------------------------------------------------------------------------------
--------------------------------------------------------------------------------------------
----------------7----7-------9-----7---5-------------------------------------------------
----7---7---7-------------------------------7----7----7----7----9----9----9/7----------
--------------------------------------------------------------------------------------------

Play this for three times, on the 4th one there's a variation

--------------------------------------------------------------------------------------------
--------------------------------------------------------------------------------------------
------------------------------------9----9----9----9--------------------------------------
----------------7----7----7----------------------------9----9----9---9------------------
----7---7---7-----------------------------------------------------------------------------
--------------------------------------------------------------------------------------------


Part distorted

---12---12---12---12----12--------|----9---9---9---9--9---9---------------------------
---12---12---12---12----12--------|----9---9---9---9--9---9---------------------------
---12---12---12---12----12--------|----9---9---9---9--9---9---------------------------
----------------------------------|----7---7---7---7--7---7---------------------------
---------------------------------------------------------------------------------------------
---------------------------------------------------------------------------------------------

--------------------------------------------------------------------------------------------
--------------------------------------------------------------------------------------------
--------------------------------------------------------------------------
----------------9----9----9----12--9---9--9--9--9---9----12---9--9--9---12---9---9---12--9---
----7---7---7-----------------------------------------------------------------------------
--------------------------------------------------------------------------------------------

Lascia un commento

Facebook Auto Publish Powered By : XYZScripts.com