Album: Californication
Song: Parallel universe

Intro
G|---------------------------------|---------------------------------|---------------------------------|---------------------------------| 
D|---------------------------------|---------------------------------|---------------------------------|---------------------------------| 
A|-3-3-3-3-3-3-3-3-3-3-3-3-3-3-3-3-|-3-3-3-3-3-3-3-3-3-3-3-3-3-3-3-3-|---------------------------------|---------------------------------| 
E|---------------------------------|---------------------------------|-6-6-6-6-6-6-6-6-6-6-6-6-6-6-6-6-|-6-6-6-6-6-6-6-6-6-6-6-6-6-6-6-6-| 


G|---------------------------------|---------------------------------|---------------------------------|---------------------------------| 
D|---------------------------------|---------------------------------|---------------------------------|-5-5-5-5-3-3-3-3-1-1-1-1-0-0-0-0-| 
A|-5-5-5-5-5-5-5-5-5-5-5-5-5-5-5-5-|-6-6-6-6-6-6-6-6-6-6-6-6-6-6-6-6-|---------------------------------|---------------------------------| 
E|---------------------------------|---------------------------------|-3-3-3-3-3-3-3-3-3-3-3-3-3-3-3-3-|---------------------------------| 

Verse: Intro (x2)
Chorus: (x2)

G|---------------------------------|---------------------------------|---------------------------------|---------------------------------|  
D|---------------------------------|---------------------------------|---------------------------------|---------------------------------| 
A|-3-3-3-3-3-3-3-3-3-3-3-3---------|-----------------6-6-6-6-6-6-6-6-|---------------------------------|---------------------------------| 
E|-------------------------3-3-3-3-|-4-4-4-4-4-4-4-4-----------------|-3-3-3-3-3-3-3-3-3-3-3-3-3-3-3-3-|-3-3-3-3-3-3-3-3-3-3-3-3-3-3-3-3-|

Verse: Intro (x2)
Chorus: (x4)

Interlude: (x4)
G|---------------------------------| 
D|---------------------------------| 
A|-3-3-3-3-------------------------| 
E|---------3-3-3-3-4-4-4-4-1-1-1-1-| 

Verse: Intro (x2)
Chorus: (x4)
Solo Part / Ending: Intro (x4)
WP Facebook Auto Publish Powered By : XYZScripts.com