Special Secret Song Inside

INTRO AND VERSE:

E-|------------------------------------------|
B-|-6--x--6---x-x-6--x--6---x-x------|
G-|-5--x--5---x-x-5--x--5---x-x------|
D-|-4--x--4---x-x-4--x--4---x-x------|
A-|-5--x--5---x-x-5--x--5---x-x------|
E-|------------------------------------------|
CHORUS:

E-|--------------x--x--5--5---5---x--4/5--|------------------13--13--13--13--13--12--------|
B-|---------------------------------------------|------------------13--13--13--13--13--12---12-|
G-|-x-x-7--7--x--x--5--5---5---x--4/5--|--x-x-7--7--x-----------------------------------12-|
D-|-x-x-7--7---------------------------------|--x-x-7--7--x-----------------------------------12-|
A-|-x-x-5--5---------------------------------|--x-x-5--5--x----------------------------------------|
E-|---------------------------------------------|---------------------------------------------------------|
2nd CHORUS (right after the singing-only interlude) :

E-|------------------------------------------------------------|
B-|-x--x--9--9--x--x---------------------------------------|
G-|-x--x--9--9--x--x--12--12---12---x--11/12-------|
D-|-x--x--9--9--x--x--12--12---12---x--11/12-------|
A-|-x--x--7--7--x--x---------------------------------------|
E-|------------------------------------------------------------|

E-|-----------------------15--15--15--15--15--15------------|
B-|-x--x--9--9--x--x--15--15--15--15--15--15---14-----|
G-|-x--x--9--9--x--x--12--12--12--12--12--12---14-----|
D-|-x--x--9--9--x--x------------------------------------14-----|
A-|-x--x--7--7--x--x--------------------------------------------|
E-|-----------------------------------------------------------------|

INTERLUDE:

E-|--------------------------------------------------------------------------------------------------------|
B-|--------------------------------------------------------------------------------------------------------|
G-|--------------------------------------------------------------------------------------------------------|
D-|-7--5------5-----------------------------------------------------------------------------------4--5-|
A-|---------7------7--5--7----5--3--5--3-------3---3(1/4)-----------------------------------------|
E-|---------------------------------------------5------------------5--3--5--5--x--x-------------------|

Sorry, no solo. It's very long and there's no point of copying exactly what
Hillel does.

Just improvise a solo on the D scale and keep on playing it 'till the end
(even during the verse).

------------------------------------------------------------------------------------------------------------------------

Anyway, if you have any question, suggestion, correction, comment, request,
problem, headache, grey dog whose ears are still a little black or VCR that
needs to be repaired,

E-MAIL ME !!!!!!!!!!!!!!!!!!!!!!!!!!!!!

Tabbed by Anthony M.

E-MAIL: 76752.3042@compuserve.com

The Organic Anti-Beat Box Page - Red Hot Chili Peppers:

http://ourworld.compuserve.com/homepages/Red_Hot_Chili_Peppers

Lascia un commento

Facebook Auto Publish Powered By : XYZScripts.com