Phat Dance
Tabbed by: Sovaso
Album: Californication (Bonus Track Edition)
Tuning: Standard
Guitar Preformed by: John Frusciante

Intro (eighth Notes)
e|-12-12-12-12-12-12-12-12-12-12-12-12-12-12-12-12-|
B|-12-12-12-12-12-12-12-12-12-12-12-12-12-12-12-12-|
G|-9--9--9--9--9--9--9--9--9--9--9--9--9--9--9--9--| x4
D|-9--9--9--9--9--9--9--9--9--9--9--9--9--9--9--9--|
A|-------------------------------------------------|
E|-------------------------------------------------|

Pre Chorus
e|----------------------------------------------|
B|-x-x-12-12-x-12-x-x-x-x--13-13-x-x--12--12----|
G|-x-x-11-11-x-11-x-x-x-x--12-12-x-x--11--11----|
D|-x-x-9--9--x-9--x-x-x-x--10-10-x-x--9---9-----| x4
A|----------------------------------------------|
E|----------------------------------------------|

Verse
e|---------------------------------------------------------------------------|
B|-x-x-12-12-x-12-x-x-x-x--13-13-x-x--12--12--x-12-x-x-x-x--10-10--10--x-x-x-|
G|-x-x-11-11-x-11-x-x-x-x--12-12-x-x--11--11--x-11-x-x-x-x--9--9---9---x-x-x-|
D|-x-x-9--9--x-9--x-x-x-x--10-10-x-x--9---9---x-9--x-x-x-x--7--7---7---x-x-x-| x2
A|---------------------------------------------------------------------------|
E|---------------------------------------------------------------------------|

Chorus
Rest For 1 Bar Then
e|-11-11-11-11-11-11-11-11-11-11-11-11-11-11-11-11-11-11-11-11-11-11-11-11-11|
B|-11-11-11-11-11-11-11-11-11-11-11-11-11-11-11-11-11-11-11-11-11-11-11-11-11|
G|-11-11-11-11-11-11-11-11-11-11-11-11-11-11-11-11-11-11-11-11-11-11-11-11-11|
D|---------------------------------------------------------------------------|
A|---------------------------------------------------------------------------|
E|---------------------------------------------------------------------------|

e|-12-12-12-12-12-12-12-12-12-12-12-12-14-14-14-14-14-14-14-14-14-14-14-14-14|
B|-14-14-14-14-14-14-14-14-14-14-14-14-14-14-14-14-14-14-14-14-14-14-14-14-14|
G|-11-11-11-11-11-11-11-11-11-11-11-11-11-11-11-11-11-11-11-11-11-11-11-11-11|
D|---------------------------------------------------------------------------|
A|---------------------------------------------------------------------------|
E|---------------------------------------------------------------------------|

After Chorus, play
e|----------------------------------------------|
B|-x-x-12-12-x-12-x-x-x-x--13-13-x-x--12--12----|
G|-x-x-11-11-x-11-x-x-x-x--12-12-x-x--11--11----|
D|-x-x-9--9--x-9--x-x-x-x--10-10-x-x--9---9-----| x4
A|----------------------------------------------|
E|----------------------------------------------|

Verse
e|---------------------------------------------------------------------------|
B|-x-x-12-12-x-12-x-x-x-x--13-13-x-x--12--12--x-12-x-x-x-x--10-10--10--x-x-x-|
G|-x-x-11-11-x-11-x-x-x-x--12-12-x-x--11--11--x-11-x-x-x-x--9--9---9---x-x-x-|
D|-x-x-9--9--x-9--x-x-x-x--10-10-x-x--9---9---x-9--x-x-x-x--7--7---7---x-x-x-| x2
A|---------------------------------------------------------------------------|
E|---------------------------------------------------------------------------|

Pre Chorus
e|----------------------------------------------|
B|-x-x-12-12-x-12-x-x-x-x--13-13-x-x--12--12----|
G|-x-x-11-11-x-11-x-x-x-x--12-12-x-x--11--11----|
D|-x-x-9--9--x-9--x-x-x-x--10-10-x-x--9---9-----| x4
A|----------------------------------------------|
E|----------------------------------------------|

Chorus
Rest For 1 Bar Then
e|-11-11-11-11-11-11-11-11-11-11-11-11-11-11-11-11-11-11-11-11-11-11-11-11-11|
B|-11-11-11-11-11-11-11-11-11-11-11-11-11-11-11-11-11-11-11-11-11-11-11-11-11|
G|-11-11-11-11-11-11-11-11-11-11-11-11-11-11-11-11-11-11-11-11-11-11-11-11-11|
D|---------------------------------------------------------------------------|
A|---------------------------------------------------------------------------|
E|---------------------------------------------------------------------------|

e|-12-12-12-12-12-12-12-12-12-12-12-12-14-14-14-14-14-14-14-14-14-14-14-14-14|
B|-14-14-14-14-14-14-14-14-14-14-14-14-14-14-14-14-14-14-14-14-14-14-14-14-14|
G|-11-11-11-11-11-11-11-11-11-11-11-11-11-11-11-11-11-11-11-11-11-11-11-11-11|
D|---------------------------------------------------------------------------|
A|---------------------------------------------------------------------------|
E|---------------------------------------------------------------------------|

Bridge
e|---------------------------------------------------------------------------|
B|--12--12--12--12--12--12-12--12--10--10--10-10-10--10-10--9-9-9-9-9-9--9-9-|
G|--11--11--11--11--11--11-11--11--9---9---9--9--9---9--9---8-8-8-8-8-8--8-8-|
D|--9------------------------------------------------------------------------|
A|---------------------------------------------------------------------------|
E|---------------------------------------------------------------------------|

e|-----------------------------------------|
B|-12-12--12-12-12-12-12-12--12--12--12----|
G|-9--9---9--9--9--9--9--9---9---9---9-----|
D|-----------------------------------------|
A|-----------------------------------------|
E|-----------------------------------------|

Play the Bridge twice.

Interlude
Guitar rests for 8 Bars

After Interlude, Play:
e|----------------------------------------------|
B|-x-x-12-12-x-12-x-x-x-x--13-13-x-x--12--12----|
G|-x-x-11-11-x-11-x-x-x-x--12-12-x-x--11--11----|
D|-x-x-9--9--x-9--x-x-x-x--10-10-x-x--9---9-----| x4
A|----------------------------------------------|
E|----------------------------------------------|

Verse
e|---------------------------------------------------------------------------|
B|-x-x-12-12-x-12-x-x-x-x--13-13-x-x--12--12--x-12-x-x-x-x--10-10--10--x-x-x-|
G|-x-x-11-11-x-11-x-x-x-x--12-12-x-x--11--11--x-11-x-x-x-x--9--9---9---x-x-x-|
D|-x-x-9--9--x-9--x-x-x-x--10-10-x-x--9---9---x-9--x-x-x-x--7--7---7---x-x-x-| x1
A|---------------------------------------------------------------------------|
E|---------------------------------------------------------------------------|

Final Interlude (eighth Notes)
e|-12-12-12-12-12-12-12-12-12-12-12-12-12-12-12-12-|
B|-12-12-12-12-12-12-12-12-12-12-12-12-12-12-12-12-|
G|-9--9--9--9--9--9--9--9--9--9--9--9--9--9--9--9--| x4
D|-9--9--9--9--9--9--9--9--9--9--9--9--9--9--9--9--|
A|-------------------------------------------------|
E|-------------------------------------------------|

Verse
e|---------------------------------------------------------------------------|
B|-x-x-12-12-x-12-x-x-x-x--13-13-x-x--12--12--x-12-x-x-x-x--10-10--10--x-x-x-|
G|-x-x-11-11-x-11-x-x-x-x--12-12-x-x--11--11--x-11-x-x-x-x--9--9---9---x-x-x-|
D|-x-x-9--9--x-9--x-x-x-x--10-10-x-x--9---9---x-9--x-x-x-x--7--7---7---x-x-x-| x4
A|---------------------------------------------------------------------------|
E|---------------------------------------------------------------------------|

Outro (Sixteenth Notes)
e|-12-12-12-12-12-12-12-12-12-12-12-12-12-12-12-12-|
B|-12-12-12-12-12-12-12-12-12-12-12-12-12-12-12-12-|
G|-9--9--9--9--9--9--9--9--9--9--9--9--9--9--9--9--|
D|-9--9--9--9--9--9--9--9--9--9--9--9--9--9--9--9--| x4
A|-------------------------------------------------|
E|-------------------------------------------------|

Thanks!! Rate and comment, please!! :)
************************************

| /   slide up
|    slide down
| h   hammer-on
| p   pull-off
| ~   vibrato
| +   harmonic
| x   Mute note
| b   Bend
| pb  Pre-bend
| br  Bend release
| pbr Pre-bend release
| brb Bend release bend

************************************

Lascia un commento

Facebook Auto Publish Powered By : XYZScripts.com