Purple Stain - Bass Tab 

From the album Californication

Verse 1  
G|-----------------------------|-------------------------------|
D|----14----------------------|----14------------------------|
A|-----------------------------|-------------------------------|
E|--0-----x12--x0---x12-0-3--|--0-----x12--x0---x12-0-2-3--|

G|---------------------------------|-----------------------------|
D|----14--------------------------|----14----------------------|
A|-----------------10br7br5br3b-|-----------------------------|
E|--0-----x12--x0-----------------|--0-----x12--x0---x12-0-3--|

Chorus 1  
G|--------------------------------------|
D|----5-7-7----5-7-7----5-7-7----5-7-7--|
A|--7--------7--------7--------7--------|
E|--------------------------------------|

G|----------------------------5------| (x2)
D|----5-7-7----5-7-7----5-7-7---7-5--|
A|--7--------7--------7--------------|
E|-----------------------------------|

Verse 2 (same as Verse 1)  

Chorus 2 (last part of Chorus 1 x4)  

Part Without Name 1
G|-------------------------| (x8)
D|-------------0--2-----2--|
A|--------0h2--------------|
E|--3--3-------------0-----|

Verse 3  
G|--------------|
D|--------------|
A|--------------|
E|--0-----x12--|
...then the same as Verse 1

Chorus 3  
G|--------------------------------------|
D|----5-7-7----5-7-7----5-7-7----5-7-7--|
A|--7--------7--------7--------7--------|
E|--------------------------------------|

G|----------------------------5------| (x4)
D|----5-7-7----5-7-7----5-7-7---7-5--|
A|--7--------7--------7--------------|
E|-----------------------------------|

The Part Without A Name 2 (same as the first)  

Ending (Chad Show-Off Time!!)  
G|-----------------------------------| 
D|----14---14---14---14-------12-----|
A|----------------------12/14----14--|
E|--12---12---12---12----------------|
...play until end.

--------------------------------------------------------------------------

   Variation in Verse 2
G-|-----------------------------------|
D-|-----14---------------------------|
A-|-----------------------------------|
E-|--0-------x12--x0--x12--0--9-10--|

------------------
 BASS TAB CHARACTERS EXPLANATION

/     = Slide up
     = Slide down
10h11 = Hammer on from fret 10 to fret 11
11p10 = Pull off from fret 11 to fret 10
x     = Mute string
br    = Bend / Release
~10   = Vibrato on the following note
S     = Slap note
P     = Pop note

Lascia un commento

Facebook Auto Publish Powered By : XYZScripts.com