Ready made
Tabbed by Dan Bogosian (UtBDan)

INTRO & VERSE & GUITAR SOLO:

G--------------------------------------------------|
D---------5---------------5---------------5--------|
A-5-7-7-5---7-5-7-5-7-7-5---7-5-7-5-7-7-5---7-5-7--|
E--------------------------------------------------|

G--------------------|
D-----------------5--|
A----------5-5-7-----|
E-5-5-7-7------------|

CHORUS:
G-------------------------------------|
D-------------------------------------|
A-----------------5-----------------5-|
E-3--3--3-33-5-5/7---5--5--5-55---57--|

G---------------------------------------------------|
D-------------5-----------------------5-------------|
A---7-7--5h7---(7)5h7------7-7--5h7----(7)5h7-------|
E----------------------7-5--—-----------------7-5-3-|

RAP BREAKDOWN:
G--------------------|
D--------------------|
A-7-6-5--------------|
E--------------7-6-5-|

G--------------------|
D--------------------|
A-7-6-5--------------|
E--------------7-6-5-|
WP Facebook Auto Publish Powered By : XYZScripts.com