Right On Time
Tabbed by David Blanc (angeldavidblanc@hotmail.com)
Guitar, standard tuning (e,B,G,D,A,E)


Verse 1:

     E5
e-|--12--x-12-x--12--x-x-12-12-x-12---|--12--x-12-x--12--x-x-12-12-x-12---|
B-|--12--x-12-x--12--x-x-12-12-x-12---|--12--x-12-x--12--x-x-12-12-x-12---|
G-|-----------------------------------|-----------------------------------|
D-|-----------------------------------|-----------------------------------|
A-|-----------------------------------|-----------------------------------|
E-|-----------------------------------|-----------------------------------|


e-|--12--x-12-x--12--x-x-12-12-x-12---|--12--x-12-x--12--x-x-12-12-x-12---|
B-|--12--x-12-x--12--x-x-12-12-x-12---|--12--x-12-x--12--x-x-12-12-x-12---|
G-|-----------------------------------|-----------------------------------|
D-|-----------------------------------|-----------------------------------|
A-|-----------------------------------|-----------------------------------|
E-|-----------------------------------|-----------------------------------|


e-|--12--x-12-x--12--x-x-12-12-x-12---|--12--x-12-x--12--x-x-12-12-x-12---|
B-|--12--x-12-x--12--x-x-12-12-x-12---|--12--x-12-x--12--x-x-12-12-x-12---|
G-|-----------------------------------|-----------------------------------|
D-|-----------------------------------|-----------------------------------|
A-|-----------------------------------|-----------------------------------|
E-|-----------------------------------|-----------------------------------|


e-|--12--x-12-x--12--x-x-12-12-x-12---|--12--x-12-x--12--x-x-12-12-x-12---|
B-|--12--x-12-x--12--x-x-12-12-x-12---|--12--x-12-x--12--x-x-12-12-x-12---|
G-|-----------------------------------|-----------------------------------|
D-|-----------------------------------|-----------------------------------|
A-|-----------------------------------|-----------------------------------|
E-|-----------------------------------|-----------------------------------|

Chorus 1: 
    
     C#m            E                    B                F#m
e-|--9--------------7-----------------|--7----------------9---------------|
B-|--9--------------9-----------------|--7----------------10--------------|
G-|--9--------------9-----------------|--8----------------11--------------|
D-|--11-------------------------------|--9--------------------------------|
A-|-----------------------------------|-----------------------------------|
E-|-----------------------------------|-----------------------------------|


     C#m            E                    B                F#m
e-|--9--------------7-----------------|--7----------------9---------------|
B-|--9--------------9-----------------|--7----------------10--------------|
G-|--9--------------9-----------------|--8----------------11--------------|
D-|--11-------------------------------|--9--------------------------------|
A-|-----------------------------------|-----------------------------------|
E-|-----------------------------------|-----------------------------------|


     C#m            E                    B                F#m
e-|--9--------------7-----------------|--7----------------9---------------|
B-|--9--------------9-----------------|--7----------------10--------------|
G-|--9--------------9-----------------|--8----------------11--------------|
D-|--11-------------------------------|--9--------------------------------|
A-|-----------------------------------|-----------------------------------|
E-|-----------------------------------|-----------------------------------|


     C#m            E                    B                F#m
e-|--9--------------7-----------------|--7----------------9---------------|
B-|--9--------------9-----------------|--7----------------10--------------|
G-|--9--------------9-----------------|--8----------------11--------------|
D-|--11-------------------------------|--9--------------------------------|
A-|-----------------------------------|-----------------------------------|
E-|-----------------------------------|-----------------------------------|


Verse 2:

     E5
e-|--12--x-12-x--12--x-x-12-12-x-12---|--12--x-12-x--12--x-x-12-12-x-12---|
B-|--12--x-12-x--12--x-x-12-12-x-12---|--12--x-12-x--12--x-x-12-12-x-12---|
G-|-----------------------------------|-----------------------------------|
D-|-----------------------------------|-----------------------------------|
A-|-----------------------------------|-----------------------------------|
E-|-----------------------------------|-----------------------------------|


e-|--12--x-12-x--12--x-x-12-12-x-12---|--12--x-12-x--12--x-x-12-12-x-12---|
B-|--12--x-12-x--12--x-x-12-12-x-12---|--12--x-12-x--12--x-x-12-12-x-12---|
G-|-----------------------------------|-----------------------------------|
D-|-----------------------------------|-----------------------------------|
A-|-----------------------------------|-----------------------------------|
E-|-----------------------------------|-----------------------------------|


e-|--12--x-12-x--12--x-x-12-12-x-12---|--12--x-12-x--12--x-x-12-12-x-12---|
B-|--12--x-12-x--12--x-x-12-12-x-12---|--12--x-12-x--12--x-x-12-12-x-12---|
G-|-----------------------------------|-----------------------------------|
D-|-----------------------------------|-----------------------------------|
A-|-----------------------------------|-----------------------------------|
E-|-----------------------------------|-----------------------------------|


e-|--12--x-12-x--12--x-x-12-12-x-12---|--12--x-12-x--12--x-x-12-12-x-12---|
B-|--12--x-12-x--12--x-x-12-12-x-12---|--12--x-12-x--12--x-x-12-12-x-12---|
G-|-----------------------------------|-----------------------------------|
D-|-----------------------------------|-----------------------------------|
A-|-----------------------------------|-----------------------------------|
E-|-----------------------------------|-----------------------------------|

Chorus 2: 
    
     C#m            E                    B                F#m
e-|--9--------------7-----------------|--7----------------9---------------|
B-|--9--------------9-----------------|--7----------------10--------------|
G-|--9--------------9-----------------|--8----------------11--------------|
D-|--11-------------------------------|--9--------------------------------|
A-|-----------------------------------|-----------------------------------|
E-|-----------------------------------|-----------------------------------|


     C#m            E                    B                F#m
e-|--9--------------7-----------------|--7----------------9---------------|
B-|--9--------------9-----------------|--7----------------10--------------|
G-|--9--------------9-----------------|--8----------------11--------------|
D-|--11-------------------------------|--9--------------------------------|
A-|-----------------------------------|-----------------------------------|
E-|-----------------------------------|-----------------------------------|


     C#m            E                    B                F#m
e-|--9--------------7-----------------|--7----------------9---------------|
B-|--9--------------9-----------------|--7----------------10--------------|
G-|--9--------------9-----------------|--8----------------11--------------|
D-|--11-------------------------------|--9--------------------------------|
A-|-----------------------------------|-----------------------------------|
E-|-----------------------------------|-----------------------------------|


     C#m            E                    B                F#m
e-|--9--------------7-----------------|--7----------------9---------------|
B-|--9--------------9-----------------|--7----------------10--------------|
G-|--9--------------9-----------------|--8----------------11--------------|
D-|--11-------------------------------|--9--------------------------------|
A-|-----------------------------------|-----------------------------------|
E-|-----------------------------------|-----------------------------------|


     F#m                                 E                Bm 
e-|--14-------------14----------------|--12---------------14--------------|
B-|--14-------------14----------------|--12---------------15--------------|
G-|--14-------------14----------------|--13---------------16--------------|
D-|--16-------------------------------|--14-------------------------------|
A-|-----------------------------------|-----------------------------------|
E-|-----------------------------------|-----------------------------------|


     F#m                                 E                Bm7
e-|--14-------------14----------------|--12---------------17--------------|
B-|--14-------------14----------------|--12---------------15--------------|
G-|--14-------------14----------------|--13---------------16--------------|
D-|--16-------------16----------------|--14-------------------------------|
A-|-----------------------------------|-----------------------------------|
E-|-----------------------------------|-----------------------------------|


     F#m                                 E                Bm
e-|--14-------------14----------------|--12---------------14--------------|
B-|--14-------------14----------------|--12---------------15--------------|
G-|--14-------------14----------------|--13---------------16--------------|
D-|--16-------------16----------------|--14-------------------------------|
A-|-----------------------------------|-----------------------------------|
E-|-----------------------------------|-----------------------------------|


     F#m                                 E  
e-|--14-------------14----------------|--12---x----17-17--17-17-17--------|
B-|--14-------------14----------------|--12---x--------------------17-----|
G-|--14-------------14----------------|--13-------------------------------|
D-|--16-------------16----------------|--14-------------------------------|
A-|-----------------------------------|-----------------------------------|
E-|-----------------------------------|-----------------------------------|


Verse 3:

     E5
e-|--12--x-12-x--12--x-x-12-12-x-12---|--12--x-12-x--12--x-x-12-12-x-12---|
B-|--12--x-12-x--12--x-x-12-12-x-12---|--12--x-12-x--12--x-x-12-12-x-12---|
G-|-----------------------------------|-----------------------------------|
D-|-----------------------------------|-----------------------------------|
A-|-----------------------------------|-----------------------------------|
E-|-----------------------------------|-----------------------------------|


e-|--12--x-12-x--12--x-x-12-12-x-12---|--12--x-12-x--12--x-x-12-12-x-12---|
B-|--12--x-12-x--12--x-x-12-12-x-12---|--12--x-12-x--12--x-x-12-12-x-12---|
G-|-----------------------------------|-----------------------------------|
D-|-----------------------------------|-----------------------------------|
A-|-----------------------------------|-----------------------------------|
E-|-----------------------------------|-----------------------------------|


e-|--12--x-12-x--12--x-x-12-12-x-12---|--12--x-12-x--12--x-x-12-12-x-12---|
B-|--12--x-12-x--12--x-x-12-12-x-12---|--12--x-12-x--12--x-x-12-12-x-12---|
G-|-----------------------------------|-----------------------------------|
D-|-----------------------------------|-----------------------------------|
A-|-----------------------------------|-----------------------------------|
E-|-----------------------------------|-----------------------------------|


e-|--12--x-12-x--12--x-x-12-12-x-12---|--12--x-12-x--12--x-x-12-12-x-12---|
B-|--12--x-12-x--12--x-x-12-12-x-12---|--12--x-12-x--12--x-x-12-12-x-12---|
G-|-----------------------------------|-----------------------------------|
D-|-----------------------------------|-----------------------------------|
A-|-----------------------------------|-----------------------------------|
E-|-----------------------------------|-----------------------------------|


Bass Solo:

     C#m
e-|--9--------------------------------|-----------------------------------|
B-|--9--------------------------------|-----------------------------------|
G-|--9--------------------------------|---------------REST----------------|
D-|--11-------------------------------|-----------------------------------|
A-|-----------------------------------|-----------------------------------|
E-|-----------------------------------|-----------------------------------|


e-|-----------------------9---9---9---|---9---9---9---9---9---9---9---9---|
B-|-----------------------------------|-----------------------------------|
G-|------REST-------------------------|-----------------------------------|
D-|-----------------------------------|-----------------------------------|
A-|-----------------------------------|-----------------------------------|
E-|-----------------------------------|-----------------------------------|


e-|---9---9---9---9---9---9---9---9---|---9---9---9---9---9---9---9---9---|
B-|-----------------------------------|-----------------------------------|
G-|-----------------------------------|-----------------------------------|
D-|-----------------------------------|-----------------------------------|
A-|-----------------------------------|-----------------------------------|
E-|-----------------------------------|-----------------------------------|


e-|---9---9---9---9---9---9---9---9---|---9---9---9---9---9---9---9---9---|
B-|-------------------------------9---|---9---9---9---9---9---9---9---9---|
G-|-----------------------------------|---------------------------9---9---|
D-|-----------------------------------|-----------------------------------|
A-|-----------------------------------|-----------------------------------|
E-|-----------------------------------|-----------------------------------|


End:


e-|--12-12-x-12--x-12-----------------|
B-|--12-12-x-12--x-12-----------------|
G-|-----------------------------------|
D-|-----------------------------------|
A-|-----------------------------------|
E-|-----------------------------------|

Lascia un commento

Facebook Auto Publish Powered By : XYZScripts.com