Rivers Of Avalon

 4/4
  Gtr I
|----------------------------------------------------|
|----------------------------------------------------|
|-----------------------------------------0----------|
|---2---------------------0---2-0-------------2-2----|
|-0---0-2-3-----3---3-----------------3--------------|
|-----------1-0---0---0-3---3-----3-1---1---1--------|

Chorus 
|-1-1-1-1-1-1-1-1-1-1----------------------------------------------|
|-3-3-3-3-3-3-3-3-3-3---1-1-1-1-1-1-1-1-1-1--5-5-5-5-5-5-5-5-5-5---|
|-2-2-2-2-2-2-2-2-2-2---0-0-0-0-0-0-0-0-0-0--6-6-6-6-6-6-6-6-6-6---|
|-----------------------2-2-2-2-2-2-2-2-2-2--7-7-7-7-7-7-7-7-7-7---|
|-----------------------3-3-3-3-3-3-3-3-3-3--7-7-7-7-7-7-7-7-7-7---|
|------------------------------------------------------------------|

Solo
|-----------------------------------------------------|
|-----------------------------------------------------|
|-----------------------------------------------------|
|-7------14--12--10-9--7---7---14--12--10/12-10--7----|
|-----------------------------------------------------|
|-----------------------------------------------------|


|-----------------------------------------------|
|-----------------------------------------------|
|-----------------------------------------------|
|-7----14--12--10--9--7-------------------------|
|-----------------------------------------------|
|-------------------------12--12-12-12-12-12----|

After Solo
|-1-1-1-1-1-1-1---------------------------------------------------|
|-3-3-3-3-3-3-3--1-1-1-1-1-1-1-1--0-0-0-0-0-0--5-5-5-5-5-5-5-5----|
|-2-2-2-2-2-2-2--0-0-0-0-0-0-0-0--0-0-0-0-0-0--6-6-6-6-6-6-6-6----|
|----------------2-2-2-2-2-2-2-2--0-0-0-0-0-0--7-7-7-7-7-7-7-7----|
|----------------3-3-3-3-3-3-3-3--2-2-2-2-2-2--7-7-7-7-7-7-7-7----|
|---------------------------------3-3-3-3-3-3---------------------|


|-1-1-1-1-1-1-1--------------------------------------------------|
|-3-3-3-3-3-3-3--1-1-1-1-1-1-1-1--3-3-3-3-3-3-3-3-3-3-3-3-3-3----|
|-2-2-2-2-2-2-2--0-0-0-0-0-0-0-0--4-4-4-4-4-4-4-4-4-4-4-4-4-4----|
|----------------2-2-2-2-2-2-2-2--5-5-5-5-5-5-5-5-5-5-5-5-5-5----|
|----------------3-3-3-3-3-3-3-3--5-5-5-5-5-5-5-5-5-5-5-5-5-5----|
|----------------------------------------------------------------|

Lascia un commento

Facebook Auto Publish Powered By : XYZScripts.com