Rivers Of Avalon
Album: B-Side to By The Way

Inro/Verse 
e:---------------------------------------------------------
B:---------------------------------------------------------
G:---------------------------------------------------------
D:----2----------------------------------------------------
A:--0----0-2-3-----3---3--------2---753----3----5---2-2----
E:-------------1-0---0---0(0)-3---3------1---1-----1-------

e:---------------------------------------------------------
B:---------------------------------------------------------
G:---------------------------------------------------------
D:----2----------------------------------------------------
A:--0----0-2-3-----3---3--------2---753----3----5-7-2------
E:-------------1-0---0---0(0)-3---3------1---1-------------


Chorus  
E:---------------------------------------------------------
B:-------555555-1-3--------555555-1-3-------555555-1-3-----
G:--(77)---------------(55)--------------(22)--------------
D:---------------------------------------------------------
A:---------------------------------------------------------
E:---------------------------------------------------------


E:---5-33-5-33-5-3-----------------------------------------
B:---------------------------------------------------------
G:---------------------------------------------------------
D:---------------------------------------------------------
A:---------------------------------------------------------
E:---------------------------------------------------------

Background guitar does this (on chorus) Good if u have 2nd guitar
E:---------------------------------------------------------
B:--------------------2222222222222222---------------------
G:--77777777-55555555-2222222222222222---------------------
D:--77777777-55555555-2222222222222222---------------------
A:--55555555-33333333--------------------------------------
E:---------------------------------------------------------

Solo
E:---------------------------------------------------------
B:---------------------------------------------------------
G:---------9-7-5-4----------9-7-5-4/7---------9-7-5-4------
D:--7-7-77---------77-7-77------------7-7-77---------------
A:---------------------------------------------------------
E:---------------------------------------------------------

E:---------------------------------------------------------
B:---------------------------------------------------------
G:---------------------------------------------------------
D:--7-7-77-------------------------------------------------
A:---------5-55-5-5----------------------------------------
E:---------------------------------------------------------

	After solo, bridge, whatever
E:-----------0-000-000-------------------------------------
B:--5-5-55---1-111-111-------------------------------------
G:--2-2-22---0-000-000--4-4-44---2-222-222-----------------
D:--2-2-22---2-222-222--5-5-55---3-333-333-----------------
A:--0-0-00--------------5-5-55---3-333-333-----------------
E:----------------------3-3-33---1-111-111-----------------

E:-----------0-000-000-------------------------------------
B:--5-5-55---1-111-111-------------------------------------
G:--2-2-22---0-000-000--4-4-44---2-222-222222222222--------
D:--2-2-22---2-222-222--5-5-55---3-333-333333333333--------
A:--0-0-00--------------5-5-55---3-333-333333333333--------
E:----------------------3-3-33---1-111-111111111111--------

Back to the chorus but at the ending it's a little different. It's like this

E:---------------------------------------------------------
B:-------555555-1-3--------555555-1-3-------555555-1-3-----
G:--(77)---------------(55)--------------(22)--------------
D:---------------------------------------------------------
A:---------------------------------------------------------
E:---------------------------------------------------------

E:---5-33-5----5-33-5----5-33-5----5-33-5----5-33-5--1-----
B:----------55--------55--------55--------55---------3-----
G:---------------------------------------------------2-----
D:---------------------------------------------------0-----
A:---------------------------------------------------------
E:---------------------------------------------------------

Order
Intro/verse x3
Chorus (and background chorus) x4
Intro/verse x2
Chorus (and background chorus) x4
Solo x1
Bridge x1
Chorus x5
Then second chorus ending x1

Lascia un commento

Facebook Auto Publish Powered By : XYZScripts.com