Normal Tuning 
G|
D|
A|
E|

1st Riff
|-----8-x-8-6-------------------------|
|---8---------8-6-------9-x-9-7-------|
|-6-------------------9---------9-7-x-|
|-----------------x-7-----------------|

|-----8-x-8-6-------------------------|
|---8---------8-6-------9-9-0---------|
|-6-------------------9-------7-8-9-x-|
|-----------------x-7-----------------|

|-----8-x-8-6----------------------------|
|---8---------8-6-----9-9-7---9--9-9-7---|
|-6-------------------------9----------7-|
|-----------------x-7--------------------|

|-----8-x-8-6-------------------------|
|---8---------8-6-------9-x-9-7-------|
|-6-------------------9---------9-7-x-|
|-----------------x-7-----------------|

1st Interlude
|--------------------------------------------------------------|
|---6--4-6-6-6-4-------6--4-6-6-6-4-------6--4-6-6-6-4-------6-|
|----------------6------------------6------------------6-------|
|-4----------------4-4----------------4-4----------------4-4---|

|----------------------------|
|----------------------------|
|-4-44-44-44-44-44-4-44-4-4--|
|----------------------------|

2nd Riff
|-----8-x-8-6-------------------------|
|---8---------8-6-------9-x-9-7-------|
|-6-------------------9---------9-7-x-|
|-----------------x-7-----------------|

|-----8-x-8-6-------------------------|
|---8---------8-6-------9-9-0---------|
|-6-------------------9-------7-8-9-x-|
|-----------------x-7-----------------|

|-----8-x-8-6-------------------------|
|---8---------8-6--------7h9p7--------|
|-6--------------------9------9p7-----|
|-----------------x-7------------9p7--|

|-----8-x-8-6-------------------------|
|---8---------8-6-------9-x-9-7-------|
|-6-------------------9---------9-7-x-|
|-----------------x-7-----------------|

2nd Interlude
|--------------------------------------------------------------------------|
|---6--4-6-6-6-4-------8--6-8-8-8-6-----9--7-7-7-9-------11-9-11-11-11-9---|
|----------------6------------------8--------------9---------------------11|
|-4----------------6-6----------------7--------------9-9-------------------|

|-----------|
|-----------|
|-6---6--6--|
|-----------|

3rd Riff
|-----8-x-8-6-------------------------|
|---8---------8-6-------9-x-9-7-------|
|-6-------------------9---------9-7-x-|
|-----------------x-7-----------------|

|-----8-x-8-6-------------------------|
|---8---------8-6-------9-9-0---------|
|-6-------------------9-------7-8-9-x-|
|-----------------x-7-----------------|

|-----8-x-8-6-----------------------------|
|---8---------8-6-------9-x-9-7---9-9-7---|
|-6-------------------9---------9-------9-|
|-----------------x-7---------------------|

|-----8-x-8-6-------------------------|
|---8---------8-6-------9-x-9-7-------|
|-6-------------------9---------9-7-x-|
|-----------------x-7-----------------|

3rd Interlude
|--------------------------------------------------------------------------|
|---6--4-6-6-6-4-------8--6-8-8-8-6-----9--7-7-7-9-------11-9-11-11-11-9---|
|----------------6------------------8--------------9---------------------11|
|-4----------------6-6----------------7--------------9-9-------------------|

|-----------|
|-----------|
|-6---6--6--|
|-----------|

Bass solo 
|-----------------------|--6/8/9/11/12/13/15/16/18-18-18-18-18-|
|-4---------------------|-------------------/16/18-18-18-18-18-|
|------5----2---------1-|--------------------------------------|
|----------------2------|--------------------------------------|
                           p p p p  p  p  p  p  p  p  p  p  p

|--------------------------------------------------------------------------|
|--9-7-----------------9-7-----------------9-7------------------7--7-9-7-10|
|9-----9-7---6-7-9-7-9-----9-7---6-7-9-7-9-----9-7--6-7-9-7-9-7--9---------|
|----------7-------------------7-------------------7-----------------------|

4th Riff
|-----8-x-8-6-----------------------------|
|---8---------8-6-------9-x-9-7---9-7-----|
|-6-------------------9---------7-----7-x-|
|-----------------x-7---------------------|

|-----8-x-8-6-------------------------|
|---8---------8-6-------9-9-0---------|
|-6-------------------9-------7-8-9-x-|
|-----------------x-7-----------------|

|-----8-x-8-6-------------------------|
|---8---------8-6-------9-x-9-7-------|
|-6-------------------9---------9-7-x-|
|-----------------x-7-----------------|

|-------20-x-20-18---------------------------------|
|----20------------20-18----------21-x-21-19-------|
|-18---------------------------21------------21-19-|
|-------------------------x-19---------------------|

4th Interlude
|--------------------------------------------------------------------------|
|---6--4-6-6-6-4-------8--6-8-8-8-6-----9--7-7-7-9-------11-9-11-11-11-9---|
|----------------6------------------8--------------9---------------------11|
|-4----------------6-6----------------7--------------9-9-------------------|

|-----------|
|-----------|
|-6---6--6--|
|-----------|

Guitar solo
|--------------------------------------------|
|--------------------------------------------|
|--------------------------------------------|
|----0----0----0----0----0----0----0----0----|
     s    s    s    s    s    s    s    s 

5th Riff
|-----8-x-8-6-------------------------|
|---8---------8-6-------9-x-9-7-------|
|-6-------------------9---------9-7-x-|
|-----------------x-7-----------------|

|-----8-x-8-6-------------------------|
|---8---------8-6-------9-9-0---------|
|-6-------------------9-------7-8-9-x-|
|-----------------x-7-----------------|

|-----8-x-8-6-------------------------|
|---8---------8-6--------7h9p7--------|
|-6--------------------9------9p7-----|
|-----------------x-7------------9p7--|

|-----8-x-8-6----------------------------|
|---8---------8-6-----9-9-7---9--9-9-7---|
|-6-------------------------7----------7-|
|-----------------x-7--------------------|

5th Interlude
|--------------------------------------------------------------------------|
|---6--4-6-6-6-4-------8--6-8-8-8-6-----9--7-7-7-9-------11-9-11-11-11-9---|
|----------------6------------------8--------------9---------------------11|
|-4----------------6-6----------------7--------------9-9-------------------|

|-----------|
|-----------|
|-6---6--6--|
|-----------|

Drum solo
|--------------------------------------------|
|--------------------------------------------|
|--------------------------------------------|
|----0----0----0----0----0----0----0----0----|
     s    s    s    s    s    s    s    s 

6th Riff
|--8-8-8-8-8-8-8-8-8-8-8-------------------|
|--8-8-8-8-8-8-8-8-8-8-8-------9-x-9-7-----|
|--6-6-6-6-6-6-6-6-6-6-6-----9---------9-7-|
|------------------------x-7---------------|
   ^ v ^ v ^ v ^ v ^ v ^

|-----8-x-8-6-------------------------|
|---8---------8-6-------9-x-9-7-------|
|-6-------------------9---------9-7-x-|
|-----------------x-7-----------------|

|-----8-x-8-6-------------------------|
|---8---------8-6--------7h9p7--------|
|-6--------------------9------9p7-----|
|-----------------x-7------------9p7--|

|-----8-x-8-6-------------------------|
|---8---------8-6-------9-x-9-7-------|
|-6-------------------9---------9-7-x-|
|-----------------x-7-----------------|

2nd Interlude
|--------------------------------------------------------------------------|
|---6--4-6-6-6-4-------8--6-8-8-8-6-----9--7-7-7-9-------11-9-11-11-11-9---|
|----------------6------------------8--------------9---------------------11|
|-4----------------6-6----------------7--------------9-9-------------------|

|-----------|
|-----------|
|-6---6--6--|
|-----------|

Drum solo 2
|-------------------14/1514----------9----------6-----|
|------------------------------------------------------|
|------------------------------------------------------|
|----0----0----0-------------0----0------0----0-----0--|
     s    s    s    p        s    s   p  s    s  p  s 

7th Riff
|-----8-x-8-6-------------------------|
|---8---------8-6-------9-x-9-7-------|
|-6-------------------9---------9-7-x-|
|-----------------x-7-----------------|

|-----8-x-8-6-------------------------|
|---8---------8-6-------9-9-0---------|
|-6-------------------9-------7-8-9-x-|
|-----------------x-7-----------------|

|-----8-x-8-6---8-6-------------------------|
|---8---------8-----8-------9-x-9-7---9-7---|
|-6-----------------------9---------9-----7-|
|---------------------x-7-------------------|

|-----8-x-8-6-------------------------|
|---8---------8-6-------9-x-9-7-------|
|-6-------------------9---------9-7-x-|
|-----------------x-7-----------------|

7th Interlude
|--------------------------------------------------------------------------|
|---6--4-6-6-6-4-------8--6-8-8-8-6-----9--7-7-7-9-------11-9-11-11-11-9---|
|----------------6------------------8--------------9---------------------11|
|-4----------------6-6----------------7--------------9-9-------------------|
Outo
|------------------|
|------------------|
|-6----6--6----6-7-|
|------------------|
WP Facebook Auto Publish Powered By : XYZScripts.com