Save The Population

Well, there were no tabs 100% right, so here you go. For comments and stuff 
contact me at tim-luyten@hotmail.com or leave a comment. Please rate =)

Also, you might wanna use some delay throughout the whole song.

h Hammer On
p Pull Off
b Bend
/ Slide Up

Intro:

e----6---------10-10-----6---------8-8-----6-----------------------------|
B--8---6---------------8---6-------------8---6-------10-10b11-8--6b7-3---|
G---------8-7----7--7---------8-7---7-7---------8-7----------------------|
D------------------------------------------------------------------------|
A------------------------------------------------------------------------|
E------------------------------------------------------------------------|


Verse:

e----6---------13-13-131313----6---------8-8----|
B--8---6---------------------8---6--------------|
G---------8-7-----------------------8-7---7-7---|
D-----------------------------------------------|
A-----------------------------------------------|
E-----------------------------------------------|

e----6---------10-101010-8-888-6-666-5-555-4-444---|
B--8---6-------------------------------------------|
G---------8-7--------------------------------------|
D--------------------------------------------------|
A--------------------------------------------------|
E--------------------------------------------------|

e---------------------------------------------------------------3-3-3333---|
B----------------------------------------------------7-7h8p7----3-3-3333---|
G--------------3/5555-------------5/7777---------------------7--3-3-3333---|
D--5--8---------------5--8---------------5--8------------------------------|
A--------5-6----------------5-6----------------5-6-------------------------|
E--------------------------------------------------------------------------|


Pre-Chorus:

   Gm  Bb  Gm  Bb  Eb  Cm  D   D
e--3---6---3---6---6---3---5---5---|
B--3---6---3---6---8---4---7---7---|
G--3---7---3---7---8---5---7---7---| 
D--5---8---5---8---8---5---7---7---|
A--5---8---5---8---6---3---5---5---|
E--3---6---3---6-------------------|


Chorus:

I think these are the right chords for the acoustic in the background, just use 
some strumming that you like.

   Eb  F   Gm  Gm
e--6---1---3---3---|
B--8---1---3---3---|
G--8---2---3---3---|
D--8---3---5---5---|
A--6---3---5---5---|
E------1---3---3---|

Main Chorus riff:

e-----15---------------------------------------------|
B--------15----13-15-13-15-------15----13-15-13-15---|
G--12-------12-------------12-12----12---------------|
D----------------------------------------------------|
A----------------------------------------------------|
E----------------------------------------------------|

e-----------------------------------------------15---|
B--------15----13-15-13-15-------15----13-15---------|
G--12-12----12-------------12-12----12-------12------|
D----------------------------------------------------|
A----------------------------------------------------|
E----------------------------------------------------|

e-----14---------------------------------------------|
B--------------13-15-13-15-------15----13-15-13-15---|
G--12----12-12-------------12-12----12---------------|
D----------------------------------------------------|
A----------------------------------------------------|
E----------------------------------------------------|

e-----------------------------------------------15---|
B--------15----13-15-13-15-------15----13-15---------|
G--12-12----12-------------12-12----12-------12------|
D----------------------------------------------------|
A----------------------------------------------------|
E----------------------------------------------------|

e-----14---------------------------------------------|
B--------------13-15-13-15-------15----13-15-13-15---|
G--12----12-12-------------12-12----12---------------|
D----------------------------------------------------|
A----------------------------------------------------|
E----------------------------------------------------|

e-----------------------------------------------15---|
B--------15----13-15-13-15-------15----13-15---------|
G--12-12----12-------------12-12----12-------12------|
D----------------------------------------------------|
A----------------------------------------------------|
E----------------------------------------------------|

e-----14---------------------------------------------|
B--------------13-15-13-15-------15----13-15-13-15---|
G--12----12-12-------------12-12----12---------------|
D----------------------------------------------------|
A----------------------------------------------------|
E----------------------------------------------------|

e-----------------------15-15-15-15-1515151515-------|
B--------15----13-15-13-15-15-15-15-1515151515-------|
G--12-12----12---------------------------------------|
D----------------------------------------------------|
A----------------------------------------------------|
E----------------------------------------------------|

Interlude:

e----6---------13-13-131313----6--------11-11-11111111---|
B--8---6---------------------8---6-----------------------|
G---------8-7-----------------------8-7------------------|
D--------------------------------------------------------|
A--------------------------------------------------------|
E--------------------------------------------------------|

e----6---------10-101010-8-888-6-666-5-555-4-444---|
B--8---6-------------------------------------------|
G---------8-7--------------------------------------|
D--------------------------------------------------|
A--------------------------------------------------|
E--------------------------------------------------|

Verse 2:

e----6---------10-10------6--------8-8----|
B--8---6---------8--8---8---6-------------|
G---------8-7------------------8-7--7-7---|
D-----------------------------------------|
A-----------------------------------------|
E-----------------------------------------|

e----6---------10-101010-8-888-6-666-5-555-4-444---|
B--8---6-------------------------------------------|
G---------8-7--------------------------------------|
D--------------------------------------------------|
A--------------------------------------------------|
E--------------------------------------------------|

e---------------------------------------------------------------3-3-3333---|
B----------------------------------------------------7-7h8p7----3-3-3333---|
G--------------3/5555-------------5/7777---------------------7--3-3-3333---|
D--5--8---------------5--8---------------5--8------------------------------|
A--------5-6----------------5-6----------------5-6-------------------------|
E--------------------------------------------------------------------------|


Repeat Pre-Chorus

Repeat Chorus twice

That's it, hope you enjoyed

Lascia un commento

Facebook Auto Publish Powered By : XYZScripts.com