Savior
Strings: E,A,D,G
====================

this is the verse mainly, it has alot of variations, but they aren't hard to figure 
out                                   
G--------------------------------------------------------------------------------
D--------------------------------------------------------------------------------
A--5--5--5--5--5--7--8-----------------------------------------------------------
E-----------------------6--3-----------------------------------------------------

>   after you do the verse twice do this                                             
                                               
G----13-------------11-13--------------------------------------------------------
D-------16-14--------------------------------------------------------------------
A-------------14-----------------------------------------------------------------
E--0--------------0--------0-----------------------------------------------------

>  this is the part that is the coolest                                               
                                
|    do this once                               
G----19-------19-------19----19----19----19--------------------------------------
D--------------------------------------------------------------------------------
A-17----17-15----15--------------------------------------------------------------

E-------------------15----15----15----15-----------------------------------------
>                                                                                
and then do this, and then repeat
G----19-------19-------19----19----19----19
D------------------------------------------
A-17----17-15----15------------------------

E-------------------15----15----18----18---
>                                          

Lascia un commento

Facebook Auto Publish Powered By : XYZScripts.com