Scar Tissue

From the album Californication
Tabbed by Robert Petersson (mr.schh@post.netlink.se)

Verse 1
G|-------------------------------------|---------------------------------------|
D|-------------------------------------|---------------------------------------|
A|--8-8------------------------8-------|--8-8------------------------x0-3-5-3--|
E|------5-5-x8-8/10--10--10-10---10-8--|------5-5-x8-8/10--10--10-10----------|

G|-------------------------------------| (x7)
D|-------------------------------------|
A|--8-8------------------------8-------|
E|------5-5-x8-8/10--10--10-10---10-8--|

Solo Part 1
G|--19--19--19-19-17-14--14--14-14------------------------------------|
D|------------------------------------14----14--14----14----15--------|
A|---------------------------------15-----15--15----15---17----17-19--|
E|--------------------------------------------------------------------|

Verse 2
G|-------------------------------------|---------------------------------------| 
D|-------------------------------------|---------------------------------------|
A|--8-8------------------------8-------|--8-8------------------------x0-3-5-3--|
E|------5-5-x8-8/10--10--10-10---10-8--|------5-5-x8-8/10--10--10-10-----------|

G|-------------------------------------| (x2)
D|-------------------------------------|
A|--8-8------------------------8-------|
E|------5-5-x8-8/10--10--10-10---10-8--|

G|--------------------------------------| 
D|--------------------------------------|
A|--8-8---------------------------------|
E|------5-5-x8-8/10--10--10-10--13--13--|

No Drums Part of Verse 2
G|--------------------------------------|-----------------------------------|
D|--------------------------------------|---------------------/12-10-7------|
A|--8-8------------------------x0-3-5-3-|--8-8-------------------------x10--|
E|------5-5-x8-8/10--10--10-10----------|------5-5-x8-8/10-10---------------|

Drums Back
G|-------------------------------------| (x2)
D|-------------------------------------|
A|--8-8------------------------8-------|
E|------5-5-x8-8/10--10--10-10---10-8--|

G|-------------------------------|
D|-------------------------------|
A|--8-8--------------------------|
E|------5-5-x8-8/10--10--13--13--|

Solo Part 2
G|--19--19--19-19-17-14--14--14-14---------------------------------------|
D|------------------------------------14----14--14----14-----------------|
A|---------------------------------15-----15--15----15---17-17-17-17-17--|
E|-----------------------------------------------------------------------|

G|--19--19--19-21-17-14--14-14-17-17/19-17-14-17------------------------------------|
D|--------------------------------------------------14---14--14----14---------------|
A|-----------------------------------------------15----15--15---15----17-17--17-19--|
E|----------------------------------------------------------------------------------|

Verse 3
G|-------------------------------------| (x4)
D|-------------------------------------|
A|--8-8------------------------8-------|
E|------5-5-x8-8/10--10--10-10---10-8--|

G|--------------------------------|
D|--------------------------------|
A|--8-8---------------------------|
E|------5-5-x8-8/10--10--13-13-13-|

Solo Part 3 / Ending (Solo Part 2 Twice with som variations)
WP Facebook Auto Publish Powered By : XYZScripts.com