Scar Tissue

This is my impression on how the song and solos are played. If the tab doesn't 
not align especially in the solo tab part (ie the lines ---|  are stuffed up)
then take of the text wrap. For example if you are reading this in Wordpad, 
go to View -> Options -> Click 'Text' Tab -> Wrap to Window.

Normal Tuning.

Introduction

Intro Riff 1: 00:00-00:05
e|----5---5--5--5---------------------| 
B|-------------------5/6--6--6--65---| 
G|------------------------------------|
D|--3---3-----3-----------------------| 
A|----------------3--3/5--5--5--53---|
E|------------------------------------|

Intro Riff 2 cont: 00:05-00:10
e|----5---5--5--5--------------------------------| 
B|-------------------5/6---8--6--8--6---5-6------| 
G|-----------------------------------------------|
D|--3---3-----3----------------------------------| 
A|----------------3--3/5-------------------------|
E|-----------------------------------------------|

As for the verses...just play the intro riff 1 but there are slight variations
on it as well.

The Chorus is like this. Not exact...just strum the chords.
   F           C  Dm
e|----------------1--1--1--1--1--1--0------------| 
B|----------------3--3--3--3--3--3--3------------| 
G|-2--2--2--2--5--2--2--2--2--2--2--2------------|
D|-3--3--3--3--5---------------------------------| 
A|-3--3--3--3--3---------------------------------|
E|-1--1--1--1------------------------------------|
   
Now the solos:

The  are slides - John uses a slide.  The ~ are to hold a note 
etc..  The timings aren't correct but are easily learnt by playing
along with the CD. The b's are bends but you will have to improvise
on how far to bend them. It's impossible to tab those things out 
on a text file. 

First Solo:  00:58-01:10
e|----------------------------------------------------------------|
B|----------------------------------------------------------------|
G|-16b14~~~--------14b12~~~---12b/14~~~---14/15-15/16-16/17~~~--|
D|----------------------------------------------------------------|
A|----------------------------------------------------------------|
E|----------------------------------------------------------------|

Second Solo: 01:58-02:19
e|----------------------------------------------------------------|
B|-14b---14b----------------------------------14b---17------------|
G|-------------17/14-----15b12----15b14----------------17/14----|
D|----------------------------------------------------------------|
A|----------------------------------------------------------------|
E|----------------------------------------------------------------|

e|----------------------------------------------------------------|
B|--------------------14/15-15/17-17/18~~~------------------------|
G|-15b/12---15b/14------------------------------------------------|
D|----------------------------------------------------------------|
A|----------------------------------------------------------------|
E|----------------------------------------------------------------|

Third Solo:  02:46-03:30
e|-17b~~-17b15~~~-15b12~~~-12b----------------------------------|
B|-------------------------------15~~~-1513-13/15-1513-13/15-15~|
G|----------------------------------------------------------------|
D|----------------------------------------------------------------|
A|----------------------------------------------------------------|
E|----------------------------------------------------------------|

e|----------------------------------------------------------------|
B|~--15/13--13/10~~-----------------------------------------------|
G|------------------15b12~~---15b14~~--7b-14~~~--14--14--14-14~|
D|----------------------------------------------------------------|
A|----------------------------------------------------------------|
E|----------------------------------------------------------------|

e|----------------------------------------------------------------|
B|-----------------------------17b-17--13--14b--------------------|
G|-7b~~-7b5~~--5b-------14--------------------14/15b12----14~~~-|
D|-----------------7~~~-------------------------------------------|
A|----------------------------------------------------------------|
E|----------------------------------------------------------------|

Enjoy,
James.

Lascia un commento

Facebook Auto Publish Powered By : XYZScripts.com