Sexy Mexican Maid

Standart Tuning
Guitar 1: little disortion
Guitar 2: almost clean, a little disortion, but less than Guitar 1

Guitar 1:                     I like to slide down to 14 and back to 7 here
e------------------|------------------|:
B------------5-x-55|------------7-x-77|:
G------------5-x-55|------------7-x-77|:
D------------5-x-55|------7-5-5-7-x-77|:
A------7-5-5-------|--0------7--------|:
E--0------7--------|------------------|:


Guitar 2:
e----------------------|--------------------|
B----------------------|--------------------|
G--12-xx-12-xxxxx-12-12|--14-14--xxxxx-14-14|
D--12-xx-12-xxxxx-12-12|--14-14--xxxxx-14-14|
A--10-xx-10-xxxxx-10-10|--12-12--xxxxx-12-12|
E----------------------|--------------------|


In this part x means you have to do quick muted down and upstrokes.
But I guess you should be able to figure it out on your own

Interlude:

Guitar 1:                                      The Second Time it ends with:
e----------------------|--------------------------|
B----------------------|--------------------------|
G----------------------|--------------------------|
D-----5h7-77-9p7-7-9p7-|-----7h9-99-11p9--9-11p9--|   
A--5h7----------9-----9|--7h9-----------11------11|...11--12
E----------------------|--------------------------|
                                                                       14
Bridge:                                        The Second time: Play   14
e----------|----------|------------------------|                       12
B----------|----------|------------------------|                  12
G----------|----------|-------------12-xx-12-12|       Instead of 12
D----------|---------5|-------------12-xx-12-12|                  10
A--/7-5-7-5|--/7-5-7--|--/7-5-7-5---10-xx-10-10| 
E----------|----------|------------------------|


Guitar 2 plays the Bridge while Guitar 1 does the Solo.
I'll maybe do the solo on another day, but I hope this tab will help you play the song.

So have fun, folks!

Lascia un commento

Facebook Auto Publish Powered By : XYZScripts.com