Shes Only 18

Standard tuning (E A D G B e)

Main verse riff - varies between the two…

|-x-x-x-x------------x-x-x-x---------|
|-x-x-x-x------------x-x-x-x---------|
|-x-x-x-x-5b(7)-3----x-x-x-x-5b(7)---|
|-----------------5----------------5-|
|------------------------------------|
|------------------------------------|

|-x-x-x-x----------------x-x-x-x------------|
|-x-x-x-x-13b(15)-11-----x-x-x-x-13b(15)-11-|
|-x-x-x-x------------12--x-x-x-x------------|
|-------------------------------------------|
|-------------------------------------------|
|-------------------------------------------|

Chorus 

|---------------------------------|
|---------------------------------|
|-5-5-5-5-8-8-8-8-----------------|   x3
|-5-5-5-5-8-8-8-8-5-5-5-5-8-8-8-8-|
|-3-3-3-3-6-6-6-6-5-5-5-5-8-8-8-8-|
|-----------------3-3-3-3-6-6-6-6-|

|-------------------------------------------------|
|-------------------------------------------------|
|-5-5-5-5-8-8-8-8---------------------------------|  
|-5-5-5-5-8-8-8-8-5-5-5-5-5-5-5-5-4-4-4-4-4-4-4-4-|
|-3-3-3-3-6-6-6-6-5-5-5-5-5-5-5-5-4-4-4-4-4-4-4-4-|
|-----------------3-3-3-3-3-3-3-3-2-2-2-2-2-2-2-2-|

(over the last bar)

|---------------------------------------------------------|
|-----------------8-8-8-8-8-8-8-8-10-10-10-10-10-10-10-10-|
|---------------------------------------------------------|
|---------------------------------------------------------|
|---------------------------------------------------------|
|---------------------------------------------------------|

Lascia un commento

Facebook Auto Publish Powered By : XYZScripts.com