Show Me Your Soul
From the album What Hits!?
Tabbed by Anthony M. and Martin Peters

Intro:                                                                               
G-|----|----|------|
D-|----|----|------|
A-|-5--|-7--|--5-7-|
E-|----|----|------|                                                                 


Bass figure 1:                                                                               
G-|-----------------------|----------------------|
D-|-----------------------|----------------------|
A-|----x-5-6-7--x-3p0-----|----x-5-6-7--3--------|
E-|-5------------------x3-|--5--------------x3-3-|                                                                       


Pre-verse variation:                                                                               
G-|---------------------|
D-|---------------7p5-7-|
A-|----x-5-6-7----------|
E-|-5-------------------|                                                                           


Bass figure 2:                                                                               
G-|---------------x-5--------|------------------------|
D-|--------------------------|------------------------|
A-|----x-5-6-7---------------|---x-5-6-7--------------|
E-|-5------------------4p3-5-|-5------------5--3-3-x--|
    T  T T T T    P P  T T T   T T T T T    T  T T T                                                                           


Chorus:                                                                               
G-|----|-----------------|----|---------------------------|
D-|----|-----------------|----|--------5------------------|
A-|-5--|--5/85----------|-5--|-5/85-------------3-3-4-4-|
E-|----|----------5/8-5-|----|----------5----53---------|

                                                                    
G-|----|-----------|--------|---------|
D-|----|-----------|--------|---------|
A-|-5--|--5/8-8----|--------|------1--|
E-|----|--------5--|--5--3--|--1------|                           


Interlude:                                                                             
G-|--------------|-----------------|
D-|--------------|-----------------|
A-|-5-5--5--5-5--|--5-5--5--5-5-3--|
E-|--------------|-----------------|


G-|--------------|--------------------|
D-|--------------|--------------------|
A-|-5-5--5--5-5--|--5-5--5--5--5--x3--|
E-|--------------|--------------------|
Note: Sound an octave lower. 
Played on 5-string or with octave pedal.                                                                              


Bridge:                                                                             
G-|--------------------|----------------------|
D-|--------------------|----------------------|
A-|-5h7-5h7-4-5--------|-5h7-5h7-4-5-----5----|
E-|-------------43-5--|--------------5/7--7--|


End of bridge:
G-|--------------------|------------------|
D-|--------------------|------------------|
A-|-5h7-5h7-4-5--------|-5--5-6-7---------|
E-|-------------43-5--|------------15---|


Guitar solo:
G-|--------------------|----------------------|
D-|--------------------|----------------------|
A-|-5h7-5h7-4-5--------|-5h7-5h7-4-5-----5----|
E-|-------------5p3-5--|--------------5h7--7--|



Special part in guitar solo (only one time):                                                                                                              
G-|-------------------|--------------7-----------|
D-|-------------------|------5-7-8-9---9-7--5----|
A-|-5h7-5h7-4-5-------|--5/7-------------------7-|
E-|-------------5p3-5-|--------------------------|

Lascia un commento

Facebook Auto Publish Powered By : XYZScripts.com