Show Me Your Soul
Album: What Hits
Transcribed by: Greenie 12
Email: onkel44@hotmail.com

http://www.geocities.com/onkel442003/index.html


Intro:


e-|------------------------------|--12------------15------------|-
B-|--10--------------------------|--13------------15------------|-
G-|--10--------------------------|------------------------------|-
D-|--10--------------------------|------------------------------|-
A-|------------------------------|------------------------------|-
E-|------------------------------|------------------------------|-


e-|--15--x-14--x-15--x-14--x-12-14--x--|--15--x-14--x-15--x-14--x-12--x-x--|-
B-|--13--x-13--x-13--x-13--x-13-13--x--|--13--x-13--x-13--x-13--x-13--x-x--|-
G-|--12--x-12--x-12--x-12--x-12-12--x--|--12--x-12--x-12--x-12--x-12--x-x--|-
D-|------------------------------------|-----------------------------------|-
A-|------------------------------------|-----------------------------------|-
E-|------------------------------------|-----------------------------------|-


e-|--15--x-14--x-15--x-14--x-12-14--x--|--15--x-14--x-15--x-14--x-12--x-x--|-
B-|--13--x-13--x-13--x-13--x-13-13--x--|--13--x-13--x-13--x-13--x-13--x-x--|-
G-|--12--x-12--x-12--x-12--x-12-12--x--|--12--x-12--x-12--x-12--x-12--x-x--|-
D-|------------------------------------|-----------------------------------|-
A-|------------------------------------|-----------------------------------|-
E-|------------------------------------|-----------------------------------|-


e-|--15--x-14--x-15--x-14--x-12-14--x--|--15--x-14--x-15--x-14--x-12--x-x--|-
B-|--13--x-13--x-13--x-13--x-13-13--x--|--13--x-13--x-13--x-13--x-13--x-x--|-
G-|--12--x-12--x-12--x-12--x-12-12--x--|--12--x-12--x-12--x-12--x-12--x-x--|-
D-|------------------------------------|-----------------------------------|-
A-|------------------------------------|-----------------------------------|-
E-|------------------------------------|-----------------------------------|-


e-|--15--x-14--x-15--x-14--x-12-14--x--|--15--x-14--x-20-20-20-20-20-20-20-20--x--|-
B-|--13--x-13--x-13--x-13--x-13-13--x--|--13--x-13--x-19-19-19-19-19-19-19-19--x--|-
G-|--12--x-12--x-12--x-12--x-12-12--x--|--12--x-12--x-19-19-19-19-19-19-19-19--x--|-
D-|------------------------------------|------------------------------------------|-
A-|------------------------------------|------------------------------------------|-
E-|------------------------------------|------------------------------------------|-



Verse:


e-|--15--x-14--x-15--x-14--x-12-14--x--|--15--x-14--x-15--x-14--x-12--x-x--|-
B-|--13--x-13--x-13--x-13--x-13-13--x--|--13--x-13--x-13--x-13--x-13--x-x--|-
G-|--12--x-12--x-12--x-12--x-12-12--x--|--12--x-12--x-12--x-12--x-12--x-x--|-
D-|------------------------------------|-----------------------------------|-
A-|------------------------------------|-----------------------------------|-
E-|------------------------------------|-----------------------------------|-


e-|--15--x-14--x-15--x-14--x-12-14--x--|--15--x-14--x-20-20-20-20-20-20-20-20--x--|-
B-|--13--x-13--x-13--x-13--x-13-13--x--|--13--x-13--x-19-19-19-19-19-19-19-19--x--|-
G-|--12--x-12--x-12--x-12--x-12-12--x--|--12--x-12--x-19-19-19-19-19-19-19-19--x--|-
D-|------------------------------------|------------------------------------------|-
A-|------------------------------------|------------------------------------------|-
E-|------------------------------------|------------------------------------------|-


e-|------5----------------5--5--|------5--------x-x-x-8--8--|-
B-|------5----------------5--5--|------5--------x-x-x-7--7--|-
G-|------5----------------5--5--|------5--------x-x-x-7--7--|-
D-|-----------------------------|---------------------------|-
A-|-----------------------------|---------------------------|-
E-|-----------------------------|---------------------------|-


e-|------5----------------5--5--|------5--------x-x-x-8--8--|-
B-|------5----------------5--5--|------5--------x-x-x-7--7--|-
G-|------5----------------5--5--|------5--------x-x-x-7--7--|-
D-|-----------------------------|---------------------------|-
A-|-----------------------------|---------------------------|-
E-|-----------------------------|---------------------------|-


e-|------5----------------5--5--|------5--------x-x-x-8--8--|-
B-|------5----------------5--5--|------5--------x-x-x-7--7--|-
G-|------5----------------5--5--|------5--------x-x-x-7--7--|-
D-|-----------------------------|---------------------------|-
A-|-----------------------------|---------------------------|-
E-|-----------------------------|---------------------------|-


e-|------5----------------5--5--|------5--------x-x-x-8--8--|-
B-|------5----------------5--5--|------5--------x-x-x-7--7--|-
G-|------5----------------5--5--|------5--------x-x-x-7--7--|-
D-|-----------------------------|---------------------------|-
A-|-----------------------------|---------------------------|-
E-|-----------------------------|---------------------------|-



Chorus:


e-|--------------------------|-------8----x-8/10---------|-
B-|-------6----x-6/8---------|-------8----x-8/10---------|-
G-|-------5----x-5/7---------|---------------------------|-
D-|--------------------------|--7-------------------7----|-
A-|--5------------------5----|---------------------------|-
E-|--------------------------|---------------------------|-


e-|--------------------------|-------8----x-8/10---------|-
B-|-------6----x-6/8---------|-------8----x-8/10---------|-
G-|-------5----x-5/7---------|---------------------------|-
D-|--------------------------|--7-------------------7----|-
A-|--5------------------5----|---------------------------|-
E-|--------------------------|---------------------------|-


e-|--------------------------|-------8----x-8/10---------|-
B-|-------6----x-6/8---------|-------8----x-8/10---------|-
G-|-------5----x-5/7---------|---------------------------|-
D-|--------------------------|--7-------------------7----|-
A-|--5------------------5----|---------------------------|-
E-|--------------------------|---------------------------|-


e-|------------------------------|--17------------20------------|-
B-|--15--------------------------|--18------------20------------|-
G-|--15--------------------------|------------------------------|-
D-|--15--------------------------|------------------------------|-
A-|------------------------------|------------------------------|-
E-|------------------------------|------------------------------|-



Verse:


e-|--15--x-14--x-15--x-14--x-12-14--x--|--15--x-14--x-15--x-14--x-12--x-x--|-
B-|--13--x-13--x-13--x-13--x-13-13--x--|--13--x-13--x-13--x-13--x-13--x-x--|-
G-|--12--x-12--x-12--x-12--x-12-12--x--|--12--x-12--x-12--x-12--x-12--x-x--|-
D-|------------------------------------|-----------------------------------|-
A-|------------------------------------|-----------------------------------|-
E-|------------------------------------|-----------------------------------|-


e-|--15--x-14--x-15--x-14--x-12-14--x--|--15--x-14--x-15--x-14--x-12--x-x--|-
B-|--13--x-13--x-13--x-13--x-13-13--x--|--13--x-13--x-13--x-13--x-13--x-x--|-
G-|--12--x-12--x-12--x-12--x-12-12--x--|--12--x-12--x-12--x-12--x-12--x-x--|-
D-|------------------------------------|-----------------------------------|-
A-|------------------------------------|-----------------------------------|-
E-|------------------------------------|-----------------------------------|-


e-|--15--x-14--x-15--x-14--x-12-14--x--|--15--x-14--x-15--x-14--x-12--x-x--|-
B-|--13--x-13--x-13--x-13--x-13-13--x--|--13--x-13--x-13--x-13--x-13--x-x--|-
G-|--12--x-12--x-12--x-12--x-12-12--x--|--12--x-12--x-12--x-12--x-12--x-x--|-
D-|------------------------------------|-----------------------------------|-
A-|------------------------------------|-----------------------------------|-
E-|------------------------------------|-----------------------------------|-


e-|--15--x-14--x-15--x-14--x-12-14--x--|--15--x-14--x-20-20-20-20-20-20-20-20--x--|-
B-|--13--x-13--x-13--x-13--x-13-13--x--|--13--x-13--x-19-19-19-19-19-19-19-19--x--|-
G-|--12--x-12--x-12--x-12--x-12-12--x--|--12--x-12--x-19-19-19-19-19-19-19-19--x--|-
D-|------------------------------------|------------------------------------------|-
A-|------------------------------------|------------------------------------------|-
E-|------------------------------------|------------------------------------------|-



e-|------5----------------5--5--|------5--------x-x-x-8--8--|-
B-|------5----------------5--5--|------5--------x-x-x-7--7--|-
G-|------5----------------5--5--|------5--------x-x-x-7--7--|-
D-|-----------------------------|---------------------------|-
A-|-----------------------------|---------------------------|-
E-|-----------------------------|---------------------------|-


e-|------5----------------5--5--|------5--------x-x-x-8--8--|-
B-|------5----------------5--5--|------5--------x-x-x-7--7--|-
G-|------5----------------5--5--|------5--------x-x-x-7--7--|-
D-|-----------------------------|---------------------------|-
A-|-----------------------------|---------------------------|-
E-|-----------------------------|---------------------------|-


e-|------5----------------5--5--|------5--------x-x-x-8--8--|-
B-|------5----------------5--5--|------5--------x-x-x-7--7--|-
G-|------5----------------5--5--|------5--------x-x-x-7--7--|-
D-|-----------------------------|---------------------------|-
A-|-----------------------------|---------------------------|-
E-|-----------------------------|---------------------------|-


e-|------5----------------5--5--|------5--------x-x-x-8--8--|-
B-|------5----------------5--5--|------5--------x-x-x-7--7--|-
G-|------5----------------5--5--|------5--------x-x-x-7--7--|-
D-|-----------------------------|---------------------------|-
A-|-----------------------------|---------------------------|-
E-|-----------------------------|---------------------------|-



Chorus:


e-|--------------------------|-------8----x-8/10---------|-
B-|-------6----x-6/8---------|-------8----x-8/10---------|-
G-|-------5----x-5/7---------|---------------------------|-
D-|--------------------------|--7-------------------7----|-
A-|--5------------------5----|---------------------------|-
E-|--------------------------|---------------------------|-


e-|--------------------------|-------8----x-8/10---------|-
B-|-------6----x-6/8---------|-------8----x-8/10---------|-
G-|-------5----x-5/7---------|---------------------------|-
D-|--------------------------|--7-------------------7----|-
A-|--5------------------5----|---------------------------|-
E-|--------------------------|---------------------------|-


e-|--------------------------|-------8----x-8/10---------|-
B-|-------6----x-6/8---------|-------8----x-8/10---------|-
G-|-------5----x-5/7---------|---------------------------|-
D-|--------------------------|--7-------------------7----|-
A-|--5------------------5----|---------------------------|-
E-|--------------------------|---------------------------|-


e-|------------------------------|--17------------20------------|-
B-|--15--------------------------|--18------------20------------|-
G-|--15--------------------------|------------------------------|-
D-|--15--------------------------|------------------------------|-
A-|------------------------------|------------------------------|-
E-|------------------------------|------------------------------|-



Interlude:


e-|--10-10--------10-10--------|--10-10--------10-10--------|-
B-|--10-10--------10-10--------|--10-10--------10-10--------|-
G-|--10-10--------10-10--------|--10-10--------10-10--------|-
D-|----------------------------|----------------------------|-
A-|----------------------------|----------------------------|-
E-|----------------------------|----------------------------|-


e-|--10-10--------10-10--------|--10-10--------10-10--------|-
B-|--10-10--------10-10--------|--10-10--------10-10--------|-
G-|--10-10--------10-10--------|--10-10--------10-10--------|-
D-|----------------------------|----------------------------|-
A-|----------------------------|----------------------------|-
E-|----------------------------|----------------------------|-


e-|--10-10--------10-10--------|--10-10--------10-10--------|-
B-|--10-10--------10-10--------|--10-10--------10-10--------|-
G-|--10-10--------10-10--------|--10-10--------10-10--------|-
D-|----------------------------|----------------------------|-
A-|----------------------------|----------------------------|-
E-|----------------------------|----------------------------|-


e-|--10-10--------10-10--------|--10-10-10-10-10-10-10-10-10-10-10-10-10-10-10-10--|-
B-|--10-10--------10-10--------|--10-10-10-10-10-10-10-10-10-10-10-10-10-10-10-10--|-
G-|--10-10--------10-10--------|--10-10-10-10-10-10-10-10-10-10-10-10-10-10-10-10--|-
D-|----------------------------|---------------------------------------------------|-
A-|----------------------------|---------------------------------------------------|-
E-|----------------------------|---------------------------------------------------|-


e-|------------------------------|---------------------------------|-
B-|------------------------------|---------------------------------|-
G-|------------------------------|---------------------------------|-
D-|------------------------------|---------------------------------|-
A-|--7-7-5-7--4--5-----)---------|--7-7-5-7--4--5-----------5------|-
E-|-------------------3h----5----|-------------------3--5/7---7----|-


e-|------------------------------|---------------------------------|-
B-|------------------------------|---------------------------------|-
G-|------------------------------|---------------------------------|-
D-|------------------------------|---------------------------------|-
A-|--7-7-5-7--4--5-----)---------|--7-7-5-7--4--5-----------5------|-
E-|-------------------3h----5----|-------------------3--5/7---7----|-


e-|------------------------------|---------------------------------|-
B-|------------------------------|---------------------------------|-
G-|------------------------------|---------------------------------|-
D-|------------------------------|---------------------------------|-
A-|--7-7-5-7--4--5-----)---------|--7-7-5-7--4--5-----------5------|-
E-|-------------------3h----5----|-------------------3--5/7---7----|-


e-|------------------------------|-----------------------------|-
B-|------------------------------|-----------------------------|-
G-|------------------------------|-----------------------------|-
D-|------------------------------|-----------------------------|-
A-|--7-7-5-7--4--5-----)---------|---5----5--6--7--------------|-
E-|-------------------3h----5----|-----------------------x----|-



Verse:


e-|--15--x-14--x-15--x-14--x-12-14--x--|--15--x-14--x-15--x-14--x-12--x-x--|-
B-|--13--x-13--x-13--x-13--x-13-13--x--|--13--x-13--x-13--x-13--x-13--x-x--|-
G-|--12--x-12--x-12--x-12--x-12-12--x--|--12--x-12--x-12--x-12--x-12--x-x--|-
D-|------------------------------------|-----------------------------------|-
A-|------------------------------------|-----------------------------------|-
E-|------------------------------------|-----------------------------------|-

                                                                  )
e-|--15--x-14--x-15--x-14--x-12-14--x--|--15--x-14--x-15--x-x-x-15w--------|-
B-|--13--x-13--x-13--x-13--x-13-13--x--|--13--x-13--x-13--x-x-x------------|-
G-|--12--x-12--x-12--x-12--x-12-12--x--|--12--x-12--x-12--x-x-x------------|-
D-|------------------------------------|-----------------------------------|-
A-|------------------------------------|-----------------------------------|-
E-|------------------------------------|-----------------------------------|-


e-|--15--x-14--x-15--x-14--x-12-14--x--|--15--x-14--x-15--x-14--x-12--x-x--|-
B-|--13--x-13--x-13--x-13--x-13-13--x--|--13--x-13--x-13--x-13--x-13--x-x--|-
G-|--12--x-12--x-12--x-12--x-12-12--x--|--12--x-12--x-12--x-12--x-12--x-x--|-
D-|------------------------------------|-----------------------------------|-
A-|------------------------------------|-----------------------------------|-
E-|------------------------------------|-----------------------------------|-


e-|--15--x-14--x-15--x-14--x-12-14--x--|--15--x-14--x-15--x-14--x-12--------|-
B-|--13--x-13--x-13--x-13--x-13-13--x--|--13--x-13--x-13--x-13--x-13--------|-
G-|--12--x-12--x-12--x-12--x-12-12--x--|--12--x-12--x-12--x-12--x-12--------|-
D-|------------------------------------|------------------------------------|-
A-|------------------------------------|------------------------------------|-
E-|------------------------------------|------------------------------------|-


e-|------5----------------5--5--|------5--------x-x-x-8--8--|-
B-|------5----------------5--5--|------5--------x-x-x-7--7--|-
G-|------5----------------5--5--|------5--------x-x-x-7--7--|-
D-|-----------------------------|---------------------------|-
A-|-----------------------------|---------------------------|-
E-|-----------------------------|---------------------------|-


e-|------5----------------5--5--|------5--------x-x-x-8--8--|-
B-|------5----------------5--5--|------5--------x-x-x-7--7--|-
G-|------5----------------5--5--|------5--------x-x-x-7--7--|-
D-|-----------------------------|---------------------------|-
A-|-----------------------------|---------------------------|-
E-|-----------------------------|---------------------------|-


e-|------5----------------5--5--|------5--------x-x-x-8--8--|-
B-|------5----------------5--5--|------5--------x-x-x-7--7--|-
G-|------5----------------5--5--|------5--------x-x-x-7--7--|-
D-|-----------------------------|---------------------------|-
A-|-----------------------------|---------------------------|-
E-|-----------------------------|---------------------------|-


e-|------5----------------5--5--|------5--------x-x-x-8--8--|-
B-|------5----------------5--5--|------5--------x-x-x-7--7--|-
G-|------5----------------5--5--|------5--------x-x-x-7--7--|-
D-|-----------------------------|---------------------------|-
A-|-----------------------------|---------------------------|-
E-|-----------------------------|---------------------------|-


Chorus:


e-|--------------------------|-------8----x-8/10---------|-
B-|-------6----x-6/8---------|-------8----x-8/10---------|-
G-|-------5----x-5/7---------|---------------------------|-
D-|--------------------------|--7-------------------7----|-
A-|--5------------------5----|---------------------------|-
E-|--------------------------|---------------------------|-


e-|--------------------------|-------8----x-8/10---------|-
B-|-------6----x-6/8---------|-------8----x-8/10---------|-
G-|-------5----x-5/7---------|---------------------------|-
D-|--------------------------|--7-------------------7----|-
A-|--5------------------5----|---------------------------|-
E-|--------------------------|---------------------------|-


e-|--------------------------|-------8----x-8/10---------|-
B-|-------6----x-6/8---------|-------8----x-8/10---------|-
G-|-------5----x-5/7---------|---------------------------|-
D-|--------------------------|--7-------------------7----|-
A-|--5------------------5----|---------------------------|-
E-|--------------------------|---------------------------|-


e-|------------------------------|--17------------20------------|-
B-|--15--------------------------|--18------------20------------|-
G-|--15--------------------------|------------------------------|-
D-|--15--------------------------|------------------------------|-
A-|------------------------------|------------------------------|-
E-|------------------------------|------------------------------|-



Interlude:


e-|--10-10--------10-10--------|--10-10--------10-10--------|-
B-|--10-10--------10-10--------|--10-10--------10-10--------|-
G-|--10-10--------10-10--------|--10-10--------10-10--------|-
D-|----------------------------|----------------------------|-
A-|----------------------------|----------------------------|-
E-|----------------------------|----------------------------|-


e-|--10-10--------10-10--------|--10-10--------10-10--------|-
B-|--10-10--------10-10--------|--10-10--------10-10--------|-
G-|--10-10--------10-10--------|--10-10--------10-10--------|-
D-|----------------------------|----------------------------|-
A-|----------------------------|----------------------------|-
E-|----------------------------|----------------------------|-


e-|--10-10--------10-10--------|--10-10--------10-10--------|-
B-|--10-10--------10-10--------|--10-10--------10-10--------|-
G-|--10-10--------10-10--------|--10-10--------10-10--------|-
D-|----------------------------|----------------------------|-
A-|----------------------------|----------------------------|-
E-|----------------------------|----------------------------|-


e-|--10-10--------10-10--------|--10-10-10-10-10-10-10-10-10-10-10-10-10-10-10-10--|-
B-|--10-10--------10-10--------|--10-10-10-10-10-10-10-10-10-10-10-10-10-10-10-10--|-
G-|--10-10--------10-10--------|--10-10-10-10-10-10-10-10-10-10-10-10-10-10-10-10--|-
D-|----------------------------|---------------------------------------------------|-
A-|----------------------------|---------------------------------------------------|-
E-|----------------------------|---------------------------------------------------|-


e-|------------------------------|---------------------------------|-
B-|------------------------------|---------------------------------|-
G-|------------------------------|---------------------------------|-
D-|------------------------------|---------------------------------|-
A-|--7-7-5-7--4--5-----)---------|--7-7-5-7--4--5-----------5------|-
E-|-------------------3h----5----|-------------------3--5/7---7----|-


e-|------------------------------|---------------------------------|-
B-|------------------------------|---------------------------------|-
G-|------------------------------|---------------------------------|-
D-|------------------------------|---------------------------------|-
A-|--7-7-5-7--4--5-----)---------|--7-7-5-7--4--5-----------5------|-
E-|-------------------3h----5----|-------------------3--5/7---7----|-


e-|------------------------------|---------------------------------|-
B-|------------------------------|---------------------------------|-
G-|------------------------------|---------------------------------|-
D-|------------------------------|---------------------------------|-
A-|--7-7-5-7--4--5-----)---------|--7-7-5-7--4--5-----------5------|-
E-|-------------------3h----5----|-------------------3--5/7---7----|-


e-|------------------------------|---------------------------------|-
B-|------------------------------|---------------------------------|-
G-|------------------------------|---------------------------------|-
D-|------------------------------|---------------------------------|-
A-|--7-7-5-7--4--5-----)---------|--7-7-5-7--4--5-----------5------|-
E-|-------------------3h----5----|-------------------3--5/7---7----|-



Interlude: 

     
     Guitar 2      w/feedback        
e-|------------------)------------|------------------------)----|-
B-|----------------12h------------|--(12)----------------12h-----|-
G-|-------------------------------|------------------------------|-
D-|-------------------------------|------------------------------|-
A-|-------------------------------|------------------------------|-
E-|-------------------------------|------------------------------|-


e-|--------------------------------|------------------------------|-
B-|--(12)--------10----------------|--(10)------------------------|-
G-|--------------------------------|------------------------------|-
D-|--------------------------------|------------------------------|-
A-|--------------------------------|------------------------------|-
E-|--------------------------------|------------------------------|-


e-|------))--------------------|------------------------)----|-
B-|----12h----------------------|--(12)----------------12h-----|-
G-|---x-------------------------|------------------------------|-
D-|--x--------------------------|------------------------------|-
A-|-----------------------------|------------------------------|-
E-|-----------------------------|------------------------------|-

                                          w/bar 
e-|--------------------------------|-------------------------------|-
B-|--(12)--------10----------------|--(10).../--------------------|-
G-|--------------------------------|------.../--------------------|-
D-|--------------------------------|-------0.5---------------------|-
A-|--------------------------------|-------------------------------|-
E-|--------------------------------|-------------------------------|-


e-|--------)--------------------|--------)--------------------|-
B-|------15w--------------------|------14h--------------------|-
G-|-----------------------------|-----------------------------|-
D-|-----------------------------|-----------------------------|-
A-|-----------------------------|-----------------------------|-
E-|-----------------------------|-----------------------------|-


e-|--------)--------------------|------------------------------|-
B-|------15w--------------------|------------------------------|-
G-|-----------------------------|------------(Rest)------------|-
D-|-----------------------------|------------------------------|-
A-|-----------------------------|------------------------------|-
E-|-----------------------------|------------------------------|-


e-|--------)--------------------|--------)--------------------|-
B-|------15w--------------------|------14h--------------------|-
G-|-----------------------------|-----------------------------|-
D-|-----------------------------|-----------------------------|-
A-|-----------------------------|-----------------------------|-
E-|-----------------------------|-----------------------------|-


e-|--------)--------------------|------------------------------|-
B-|------15w--------------------|------------------------------|-
G-|-----------------------------|------------(Rest)------------|-
D-|-----------------------------|------------------------------|-
A-|-----------------------------|------------------------------|-
E-|-----------------------------|------------------------------|-



Guitar Solo:


e-|------------------------------------------|------------------------------------------|-
B-|--15--------------------------------------|--15--------------------------------------|-
G-|--------12--------------------------------|--------12--------------------------------|-
D-|--------------14/16----16-16-16-16-16-16--|--------------14/16----16-16-16-16-16-16--|-
A-|------------------------------------------|------------------------------------------|-
E-|------------------------------------------|------------------------------------------|-


e-|--------------------------------|----------------------------|-
B-|--------------------------------|------------15--------------|-
G-|--14------------------14--------|------------------14--------|-
D-|------------16------------------|--16------------------------|-
A-|--------------------------------|----------------------------|-
E-|--------------------------------|----------------------------|-

       )         |     |     |             |              )
e-|--17w--------17w---17w---17w----|------17w------------17w-------------|-
B-|--------------------------------|-------------------------------------|-
G-|--------------------------------|-------------------------------------|-
D-|--------------------------------|-------------------------------------|-
A-|--------------------------------|-------------------------------------|-
E-|--------------------------------|-------------------------------------|-

                     )                 )
e-|--17------------17w-------------|--15w-----------------------------|-
B-|--------------------------------|-----------------x-x-x-x-x-x-x-x--|-
G-|--------------------------------|-----------------x-x-x-x-x-x-x-x--|-
D-|--------------------------------|----------------------------------|-
A-|--------------------------------|----------------------------------|-
E-|--------------------------------|----------------------------------|-


e-|---------------------------------|--------------------------------|-
B-|---------------------------------|--------------------------------|-
G-|---)-----------------------------|---)----------------------------|-
D-|--7w-----5--7h5-------------2----|--7w----5--7h5-------------2----|-
A-|----------------7-----)---------|---------------7-----)---------|-
E-|----------------------3----------|---------------------3----------|-


e-|--------------------------------------------|-------------------------------------|-
B-|--------------------------------------------|----------------------------)--------|-
G-|---)----------------------------------------|---------------------------6h--------|-
D-|--7w-----5--7h5----5h7p5h7p5h7p5h7p5h7p5h7--|--5h7p5h7p5h7p5h7p5h7p5h7------------|-
A-|----------------7---------------------------|-------------------------------------|-
E-|--------------------------------------------|-------------------------------------|-


e-|---------------------------------|---------------------------------|-
B-|-------)----------------)--------|----------------x-x-x-x-x-x-x-x--|-
G-|------7w--------6h7----6w--------|----------------x-x-x-x-x-x-x-x--|-
D-|---------------------------------|----------------x-x-x-x-x-x-x-x--|-
A-|---------------------------------|---------------------------------|-
E-|---------------------------------|---------------------------------|-

                                                          Tremolo Pick
e-|------------------------------------|------------------------------|-
B-|----)----------------------)--------|-------------------|----------|-
G-|--14w-----------12h14----12w--------|--(12)------------12...--12--|-
D-|------------------------------------|------------------------------|-
A-|------------------------------------|------------------------------|-
E-|------------------------------------|------------------------------|-

     Tremolo Pick
e-|---------------------------|-----------------------------|-
B-|--15...--------------------|--15...----------------------|-
G-|---x-----------------------|---x-------------------------|-
D-|--12...--------------------|--12...----------------------|-
A-|---------------------------|-----------------------------|-
E-|---------------------------|-----------------------------|-


e-|------------------------------|---------------------------------|-
B-|--17...--15...--12...--10...--|--8...--10...--12...--12--------|-
G-|---x------x------x------x-----|--x------x------x------x---------|-
D-|--14...--12...---9...---7...--|--5...---7...---9...---9--------|-
A-|------------------------------|---------------------------------|-
E-|------------------------------|---------------------------------|-


e-|-----------------------------|----------------------------------|-
B-|-----------------------------|----------------------------------|-
G-|---)-------------)-----------|---)---------)--------------------|-
D-|--7w------------7w----5-7h5--|--7w--------7w--------------------|-
A-|-----------------------------|----------------------------------|-
E-|-----------------------------|----------------------------------|-

Lascia un commento

Facebook Auto Publish Powered By : XYZScripts.com