Skinny sweaty man
krinkle@tiac.net

verse :

      T   T P T P T   T P T P
G-|---------------------0---9---------------------------------------------|
D-|---------7---7---------------------------------------------------------|
A-|---5h7---------5h7-0---------------------------------------------------|
E-|-------x---x-----------0-----------------------------------------------|
      
as played by flea in the video "adventures in spontaneous jamming
                                                    and techiques"

chorus :

G-|--7-6-5-4---------------9---|
D-|-----------5-6-7-8----------|
A-|--------------------7-7-----|
E-|----------------------------|

vocal/bass fill :

G-|---------????????-----------|
D-|---------????????-----------|
A-|--7-5-7--????????-----------|
E-|---------????????-----------|
WP Facebook Auto Publish Powered By : XYZScripts.com