Skinny Sweaty Man
Album: The Uplift Mofo Party Plan
Transcribed by: Greenie 12
Email: onkel44@hotmail.com

http://www.geocities.com/onkel442003/index.html


Verse:

              
e-|---------------------8-8-8-8-8-8--|---------------------8-8-8--------|-
B-|-----x-x-----x-x-x-x-8-8-8-8-8-8--|-----x-x-----x-x-x-x-8-8-8--------|-
G-|-----x-x-----x-x-x-x--------------|-----x-x-----x-x-x-x--------------|-
D-|-----x-x-----x-x-x-x--------------|-----x-x-----x-x-x-x--------------|-
A-|---------7h5----------------------|---------7h5----------------------|-
E-|--0-------------------------------|--0-------------------------------|-
                                                                            
  

Chorus:


e-|----------------------|-------------------------|-
B-|----------------------|-------------------------|-
G-|--7----6--------------|--------------------9----|-
D-|------------9----7----|--5--6--7--8--9----------|-
A-|----------------------|-----------------7-------|-
E-|----------------------|-------------------------|-
      


Interlude: 


e-|--x-x-x-x--7--9--x-x----12----|--x-x-x-x--7--9--x-x----14----|-
B-|--x-x-x-x--7--9--x-x----12----|--x-x-x-x--7--9--x-x----14----|-
G-|--x-x-x-x--7--9--x-x----12----|--x-x-x-x--7--9--x-x----14----|-
D-|------------------------------|------------------------------|-
A-|------------------------------|------------------------------|-
E-|------------------------------|------------------------------|-



Bass Riff:

                                                      
-|-----------------------------0---------9--|-
-|----------5-----5-------------------------|-
-|--5h7--------------5h7--0-----------------|-
-|-------x-----x--------------------0-------|-
    S    S  p  S  p  S    S    p    S    p
WP Facebook Auto Publish Powered By : XYZScripts.com