Title: Slow Cheetah
Album: Stadium Arcadium
Tabbed by: Jon Turner jrt5024@gmail.com

jrt5024@gmail.com. Thx! :D

-------------------------------------------------

Guitar Intro (12 bar rest)

Verse - :35

G|--------6-------|----------------|
D|8-------6-------|--------4-------|
A|----------------|6-------4-------|
E|----------------|----------------|
Repeat until…

Pre-Chorus - :57
G|----------------|----------------|
D|----------------|----------------|
A|1-------4-------|6-------9-------|
E|----------------|----------------|

G|----------------|----------------|
D|----------------|----------------|
A|1-------4-------|6---6-6-666-6--6|
E|----------------|----------------|

G|----------------|
D|----------------|
A|6-6-6-6-6666-666|
E|----------------|

Chorus – 1:10
G|----------------|----------------|
D|4-4-------------|----------------|
A|--------4-4-----|6---------------|
E|----------------|----6---4---2---|

G|----------------|-------68-88886---|
D|4-4-------------|----6s8---------86|
A|--------4-4-----|6-6---------------|
E|----------------|------------------|

G|----------------|----------------|
D|4-4-------------|----------------|
A|--------4-4-----|6---------------|
E|----------------|----6---4---2---|

G|----------------|----------------|
D|4-4-------------|----------------|
A|--------4-4-----|6-6-6-66666-66--|
E|----------------|----------------|

Verse 2 – 1:32 
G|----------------|----------------|
D|----------------|----------------|
A|1-1---1s4-4---4s|6-6---6s9-9-984-|
E|----------------|----------------|

G|----------------|-----------------|
D|----------------|-----------------|
A|1-1---1s4-4---4s|6-6---6s9-9s1198-|
E|----------------|-----------------|

G|----------------|----------------|
D|----------------|----------------|
A|1-1---1s4-4---4s|6-----6s9-9-4---|
E|----------------|--------------2-|

G|----------------|----------------|
D|----------------|----------------|
A|1-1---1s4-4---4s|6-6---6s9-9-984-|
E|----------------|----------------|

G|----------------|------------------|
D|----------------|------------------|
A|1-1---1s4-4---4s|6-6---6s9s13-11-9-|
E|----------------|------------------|

G|----------------|----------------|
D|----------------|----------------|
A|1-1---1s4-4---4s|6---6-6-666-6--6|
E|----------------|----------------|

G|----------------|
D|----------------|
A|6-6-6-6-6666-666|
E|----------------|

Chorus 2 – 2:07
G|----------------|----------------|
D|4-4-------------|----------------|
A|--------4-4-----|6---------------|
E|----------------|----6---4---2---|

G|----------------|-------68-8----686-|
D|4-4-------------|----6s8----6s88----|
A|--------4-4-----|6-6----------------|
E|----------------|-------------------|

G|----------------|----------------|
D|4-4-------------|----------------|
A|--------4-4-----|6---------------|
E|----------------|----6---4---2---|

G|----------------|----8-----------|
D|4-4-------------|----------------|
A|--------4-4-----|6-6---66666-66--|
E|----------------|----------------|

G|----------------|
D|----------------|
A|6-66-666-666-66-|
E|----------------|

Verse 3 – 2:32
G|--------6---6-6-|----------------|
D|8---8-8-6-------|--------4---4-4-|
A|----------------|6---6-6-4-------|
E|----------------|----------------|

G|--------6---6-6-|----------------|
D|8---8-8-6-------|--------4---4-4-|
A|----------------|6---6-6-4-------|
E|----------------|----------------|

G|----------------|----------------|
D|----------------|----------------|
A|1---1-1-4---4-4-|6---6-6-9---9-9-|
E|----------------|----------------|

G|----------------|----------------|
D|----------------|----------------|
A|1---1-1-4---4-4-|6-------9-------|
E|----------------|----------------|

Interlude – 2:53
G|----------------|--------1110-9------|
D|----------6s8---|---------------11s8-|
A|4---------------|6-------------------|
E|----------------|--------------------|

G|-----------------|---------------------|
D|----------6s86s8-|---------------------|
A|4----------------|6-------8s9s1311-9s6-|
E|-----------------|---------------------|

G|-----------------|--------10s11------|
D|----------6s86s8-|-------------------|
A|4----------------|6---------------13s|
E|-----------------|-------------------|

G|----------------|----------------|
D|----------------|----------------|
A|4---------------|6---6--6666-----|
E|------------4---|----------------|

G|----------------|
D|----------------|
A|6-6-6-6-6666666-|
E|----------------|

Chorus 3 – 3:17
G|----------------|----------------|
D|4-4-------------|----------------|
A|--------4-4-----|6---------------|
E|----------------|----6---4---2---|

G|----------------|-------68---686---|
D|4-4-------------|----6s8---68---86-|
A|--------4-4-----|6-6---------------|
E|----------------|------------------| 

G|----------------|----------------|
D|4-4-------------|----------------|
A|--------4-4-----|6---------------|
E|----------------|----6---4---2---|

G|----------------|-------68---6-686-|
D|4-4-------------|----6s8---68-8----|
A|--------4-4-----|6-6---------------|
E|----------------|------------------|

G|----------------|----------------|
D|4-4-------------|----------------|
A|--------4-4-----|6---------------|
E|----------------|----6---4---2---|

G|----------------|------------------|
D|4-4-------------|------------------|
A|--------4-4-----|6---6--46-6-46-46-|
E|----------------|-----------6--6---|

G|----------------|----------------|
D|4-4-------------|----------------|
A|--------4-4-----|6---------------|
E|----------------|----6---4---2---|

G|----------------|----8-------8---|
D|4-4-------------|----------------|
A|--------4-4-----|6-6----66-6----6|
E|----------------|----------------|

G|----8-------8---|----8-------8---|
D|----------------|----------------|
A|6-6----66-6---6-|6-6----66-6----6|
E|----------------|----------------|

G|----8---------8~|
D|----------------|
A|6-6----66-6-6---|
E|----------------|

Ending – 4:12 <3
Guitar plays until...


4:29
(riff 1)
G|--------------|----------------|
D|--8-11--------|----------------|
A|9--------8-11-|6---------------|
E|-------9------|----------------|
Repeat 1x

G|---------10-13-|----------------|
D|--8-11-11------|11--------------|
A|9--------------|----------------|
E|---------------|----------------|

(riff 2)
G|------------|----------------|
D|------------|----------------|
A|------4-----|6---------------|
E|2-----------|----------------|
Repeat 1x

G|--------------|----------------|
D|--8-11--------|11--------------|
A|9--------8-11-|----------------|
E|-------9------|----------------|

Play Riff 1 2x
Play Riff 2 2x
Play Riff 1 3x
Play Riff 2 2x

Have fun with those weird effects if you feel like doing them.
WP Facebook Auto Publish Powered By : XYZScripts.com