Song: Snow ((Hey Oh))
Album:  Stadium Arcadium
Bassist: Flea
Tuning: EADG
Tabbed by: Markus (FI)

0:09
G------------------------|
D------------------------|
A----4-6-7-----6-7-9-----|
E--4---------7-----------|


0:37
G---------------------------|
D---------------------------|
A----4-6-7--6-4---6-7-9-----|
E--4------------7-------7-6-|

0:55
G------------------------|
D------------------------|
A----4-6-7-----6-7-9-----|
E--4---------7-----------|

1:14
G---------------------------|
D---------------------------|
A----4-6-7--6-4---6-7-9-----|
E--4------------7-------7-6-|

1:32
G--------------------------------------------------------|
D--------------------------------------------------------|
A--------------------------------------------------------|
E--12--12--12--/14--/16--16--16--14--12--12--12-12-12-12-|12

1:47
G--------------------------------------------------|
D--9-9-9-9-9-9-9-9-8-8-8-8-8-8-8-8-6-6-6-6-6-6-6-6-|
A--------------------------------------------------|
E--------------------------------------------------|

G------------------|
D--6-6-6-6-6-6-6-6-|
A------------------|
E------------------|

2:23
G------------------------|
D------------------------|
A----4-6-7-----6-7-9-----|
E--4---------7-----------|

2:50
G---------------------------|
D---------------------------|
A----4-6-7--6-4---6-7-9-----|
E--4------------7-------7-6-|

3:09
G--------------------------------------------------------|
D--------------------------------------------------------|
A--------------------------------------------------------|
E--12--12--12--/14--/16--16--16--14--12--12--12-12-12-12-|12

3:23
G--------------------------------------------------|
D--9-9-9-9-9-9-9-9-8-8-8-8-8-8-8-8-6-6-6-6-6-6-6-6-|
A--------------------------------------------------|
E--------------------------------------------------|

G------------------|
D--6-6-6-6-6-6-6-6-|
A------------------|
E------------------|

5:23
G--------|
D--6-----|
A--------|
E--------|

Lascia un commento

Facebook Auto Publish Powered By : XYZScripts.com