Stone Cold Bush
Album: Mothers Milk

Key-
T= Tap
P= Pop

Intro
G-------------------------------5----5-3--------------
D-----------------------------5----5------------------
A-----------------------------------------1-3--1-3-1--
E--3--------3-0-1-2-3---------------------------------

Verse Part 1
G----------------------------------------------------5----5-3--------------
D-------5-------5-------5---------------5-------5--5----5------------------
A--------------------------------------------------------------1-3--1-3-1--
E--1-3-----1-3-----1-3-----3-0-1-2-1-3-----1-3-----------------------------

Verse Part 2
G-------------------------------------------------------3-5--3-5-3-------------
D------------------------------------------------------------------------------
A------------------------------------------------------------------1-3--1-3-1--
E--3-3-1-3--3-3-1-3--3-3-1-3--3-0-1-2-3-3-1-3--3-3-1-3-------------------------

Chorus
G--------------------------------------------------------------------
D---------------------------------------------------------5---5---5--
A--------------------------------------------------------------------
E—-8-8-8-8-8-8-8-8-6-6-6-6-5-5-5-5-3--6-3-3--6-3-3--6-3-3---3---3----
   S S S S S S S S S S S S S S S S S  S S S  S S S  S S S P S P S P
G-----------------------------------
D-----------------------------------
A—-3-3-3-3-3-3-3-3-1-1-1-1-0-0-0-0--
E-----------------------------------

Solo Part 1
G---------12---------10-9-10-------12-12---------10-15~-12--
D------------10h12-----------------------10h12--------------
A—-0h10-x----------x------------10-------------x------------
E-----------------------------------------------------------
   T    T P  P     T P  P P     T  P  P  P     T P  P   P   

G--------12-12-------10---10~-----15-14-13-12--------
D--------------10h12---------------------------------
A—-10-10----------------x-------x--------------------
E---------------------------------------------6-5-4--
   T  T  P  P  P     P  T P     T P  P  P  P  T T T  

Solo Part 2
G--------------------------------------------
D------5-5-------3-3--------5-5--------------
A--------------------------------------------
E—-3-x-----0-1-x------0-3-x-----0-1/6-5-4-3--
   T T P P T T T P P  T T T P P T T   T T T

End Of Interlude
G-------------------------------------------------------------12----10--
D--------------------------------0/12-12-12-12-12-12-12-12-12-----------
A—-5-5-5-5-5-5-5-5-5-5-5-5-5-5-5----------------------------------------
E-----------------------------------------------------------------------

Order-
Intro x1
Verse Part 1 x2
Verse Part 2 x2
Chorus x2
Intro x1
Verse Part 2 x2
Chorus x1
Solo Part 1 x1
Solo Part 2 x10
End Of Interlude x1
Intro x1
Verse Part 1 x2
Verse Part 2 x2
Chorus x1
Solo Part 1 x1

Lascia un commento

Facebook Auto Publish Powered By : XYZScripts.com