Stretch
Notation legend:

/: slide down

main riff

g|-----5-7----4-5----5-7---5---------
d|----------------------------------
a|-3/55---3/55---3/55---35-----------
e|----------------------------------

g|-----5-7----4-5----5-7----4-5----5-7----4-5----5-7--5-----------     x4
d|----------------------------------------------------------------
a|-3/55---3/55---3/55---3/55---3/55---3/55---3/55---5-------------
e|----------------------------------------------------------------

flea does a variety of variations of this riff during the track....so listen it and
get it right

...like this:
g|-----5-7----4-5----5-75------------457----5-7--5----
d|-----------------------753------357-----------------
a|-3/55---3/55---3/55--------53035------3/55---35------
e|----------------------------------------------------


..something like a pre-chorus

g|--7--5--7-5-7-5------
d|---------------------
a|---------------------
e|---------------------


g|--7--5-7-5---5-----5--  x3
d|-----------7----7-----
a|----------------------
e|----------------------

first and third time

g|--7--5-7-5---5----5-----------------------5-7----
d|-----------7---7-----7--5-3---------3-5-7--------
a|----------------------------5-3-3-5--------------
e|-------------------------------------------------   return to the main riff

second time
g|--7---5----5--------
d|---------7----7--5--
a|--------------------
e|--------------------  do the chorus

chorus

g|--------------------------------------------------5-5-5-5-5-5-5-5---  x4
d|--3-3-3-3-3-3-3-3-5-5-5-5-5-5-5-5-7-7-7-7-7-7-7-7-------------------
a|--------------------------------------------------------------------
e|--------------------------------------------------------------------
WP Facebook Auto Publish Powered By : XYZScripts.com