Strip My Mind

Intro-
e-0---0---0---0---0---0---0---3--------|
B-1---0---1---1---3---1---1---0--------|
G-2---0---2---0---2---2---0---0--------|
D-2---2---3---2---0---2---2---0--------|
A-0---2---3---3-------0---3---2--------|
E-----0---1-------------------3--------|
Main chords-
e-0---0---0---0---0---0---0---3-333-|
B-1---0---1---1---3---1---1---0-000-|
G-2---0---2---0---2---2---0---0-000-|
D-2---2---3---2---0---2---2---0-000-|
A-0---2---3---3-------0---3---2-222-|
E-----0---1-------------------3-333-|

e-0---0---0---0---0---0---0---3-|
B-1---0---1---1---3---1---1---0-|
G-2---0---2---0---2---2---0---0-|
D-2---2---3---2---0---2---2---0-|
A-0---2---3---3-------0---3---2-|
E-----0---1-------------------3-|
Bridge-
e-0000------0000-0000-|
B-1111-0000-1111-1111-|
G-2222-0000-2222-2222-|
D-3333-2222-3333-3333-|
A-3333-3333-3333-3333-|
E-1111------1111-1111-|
Chorus-
e-0-0--3-0000-|
B-1-1--0-1111-|
G-2-2--0-2222-|
D-2-2-00-3333-|
A-0-0-22-3333-|
E-----3--1111-|x2

e-0-0-00-0~--|
B-1-1-33-1~--|
G-2-2-22-2~--|
D-2-2-00-3~--|
A-0-0----3~--|
E--------1~--|
Main chords-
e-0---0---0---0---0---0---0---3-333-|
B-1---0---1---1---3---1---1---0-000-|
G-2---0---2---0---2---2---0---0-000-|
D-2---2---3---2---0---2---2---0-000-|
A-0---2---3---3-------0---3---2-222-|
E-----0---1-------------------3-333-|

e-0---0---0---0---0---0---0---3-|
B-1---0---1---1---3---1---1---0-|
G-2---0---2---0---2---2---0---0-|
D-2---2---3---2---0---2---2---0-|
A-0---2---3---3-------0---3---2-|
E-----0---1-------------------3-|
Bridge-
e-0000------0000-0000-|
B-1111-0000-1111-1111-|
G-2222-0000-2222-2222-|
D-3333-2222-3333-3333-|
A-3333-3333-3333-3333-|
E-1111------1111-1111-|
Chorus-
e-0-0--3-0000-|
B-1-1--0-1111-|
G-2-2--0-2222-|
D-2-2-00-3333-|
A-0-0-22-3333-|
E-----3--1111-|x2

e-0-0-00-0~--|
B-1-1-33-1~--|
G-2-2-22-2~--|
D-2-2-00-3~--|
A-0-0----3~--|
E--------1~--|
Solo-
e-00-----------------------------------------------|
B-005----------------------------------------------|
G-007^9--7^9^7-55-55-5h7-7^9^7-5-5h7-7^9^7-5-7^9^7-|
D-00----------------7-----------7-----------7------|
A-00-----------------------------------------------|
E--------------------------------------------------|

e-00-----15-15^17^15-1212-15^17----------------------------------------|
B-0015^17~---------------------15^17^15-1313-1313--13h15-15^17^15-13---|
G-00---------------------------------------------14-----------------14-|
D-00-------------------------------------------------------------------|
A-00-------------------------------------------------------------------|
E----------------------------------------------------------------------|

e--------------------------------|
B-13h15-15^17^15-13--15^17^18^15-|
G------------------14------------|
D--------------------------------|
A--------------------------------|
E--------------------------------|
Main chords-(you have to strum them now)
e-0---0---0---0---0---0---0---3-333-|
B-1---0---1---1---3---1---1---0-000-|
G-2---0---2---0---2---2---0---0-000-|
D-2---2---3---2---0---2---2---0-000-|
A-0---2---3---3-------0---3---2-222-|
E-----0---1-------------------3-333-|

e-0---0---0---0---0---0---0---3-|
B-1---0---1---1---3---1---1---0-|
G-2---0---2---0---2---2---0---0-|
D-2---2---3---2---0---2---2---0-|
A-0---2---3---3-------0---3---2-|
E-----0---1-------------------3-|
Bridge-
e-0000------0000-0000-|
B-1111-0000-1111-1111-|
G-2222-0000-2222-2222-|
D-3333-2222-3333-3333-|
A-3333-3333-3333-3333-|
E-1111------1111-1111-|
Chorus-
e-0-0--3-0000-|
B-1-1--0-1111-|
G-2-2--0-2222-|
D-2-2-00-3333-|
A-0-0-22-3333-|
E-----3--1111-|x2

e-0-0-00-0000-|
B-1-1-33-1111-|
G-2-2-22-2111-|
D-2-2-00-3111-|
A-0-0----3111-|
E--------1111-|

e-0-0-00-0~--|
B-1-1-33-1~--|
G-2-2-22-2~--|
D-2-2-00-3~--|
A-0-0----3~--|
E--------1~--|
WP Facebook Auto Publish Powered By : XYZScripts.com