Subterranian Homesick Blues
Album: The Uplift Mofo Party Plan
Transcribed by: Chris Valente
Email: RedHotMetallica@aol.com

Live this song is played with OD the whole time. Rock on. peace.

--15-x--------------------15--------------------------------------------------
--15-x--12-x12-12-12/14---15---12/14-14-14---12-------------------------------
-----x--12-x12-12-12/14--------12/14-14-14---12-------------------------------
-----x------------------12--14------------------------------------------------
------------------------------------------------------------------------------
------------------------------------------------------------------------------
 Verse                                                                        

---------15--1515----15--1515-------------------------------------------------
---------13--1313----13--1313-------------------------------------------------
--2--2---12--1212----12--1212-------------------------------------------------
--2--2------------------------------------------------------------------------
--0--0------------------------------------------------------------------------
------------------------------------------------------------------------------
 Chorus                                                                       

------------------------------------------------------------------------------
--16--16---16--1616----16--1616-----------------------------------------------
--15--15---15--1515----15--1515-----------------------------------------------
--14--14---14--1414----14--1414-----------------------------------------------
--15--15---15--1515----15--1515-----------------------------------------------
------------------------------------------------------------------------------
 Pre-Bass Solo                                                                

------------------------------------------------------------------------------
------------------------------------------------------------------------------
--9----7----------------------------------------------------------------------
--9----7----10----9--10-12----------------------------------------------------
--7----5----10----9--10-12----------------------------------------------------
-------------8----7---8-10----------------------------------------------------
 Bridge

Lascia un commento

Facebook Auto Publish Powered By : XYZScripts.com