Subway To Venus
Album: Mothers Milk

Intro:
 
G:---15-14po12----14po12-------------------------------x-9-----------
D:------------14--------14-12/11---12/11-------------------6--7-8-9--
A:------------------------------12-------12-10---7-7----------------x
E:-------------------------------------------------------------------

G:-------x-9--------------7-----x-9--------------------9-------7-----
D:-----------6---7---7-8-9-9--------6--7--8--9----------6-7-8-9-9-8-7
A:--7------------------------7-----------------x---7-----------------
E:-------------------------------------------------------------------

 First Verse: 

G:-----x-9-------------x-9----------7
D:--------6-7--8-9--------6-7--7-8-9-9
A:-7---------------x-7----------------
E:-0----------------------------------

G:-------------------------------------
D:-------------------------------------
A:-----3--------------------3----5-5--3
E:-5-5---5--x-0-5-5-0-4-5-5---------5--

G:----------------------------------------------
D:----------------------------------------------
A:-------3---------------------4-4-4-5-5-5-6-6-6
E:-5---5---5--x-0-5-5-0-4-5-5-5-----------------

G:----------------------------------
D:----------------------------------
A:-----7-------------7-----------5--
E:-0-0--4-5-6-7-7-0-0-4--5-5-6-7---7

 Chorus:

G:-----------------------------
D:----9-7------------------7---
A:-------9-7---------7-8-9---9-
E:-7--------------------------5

G:------------------------------------10------------12--12
D:---9/11-9-7--------------------------------10-----------
A:------------9--7--7---8----10-10--8------------10-------
E:-7----------------------8--------------8----------------


Outro/Guitar Solo:
G:-------------------------------------------------------12/
D:----------------------------------------------------------
A:-7---------4--5-4-5-6-7---------4--5-4-5-6-8-8------10----
E:---4-5-6-7---7---------4-5-6-7----7------------8-8--------

Notation Legend:
po= pull off
/=slide

Lascia un commento

Facebook Auto Publish Powered By : XYZScripts.com