Suck My Kiss	

 Key To Tab
 			
				X - Muted strings
				/ - Slide	    
Intro (Repeat 2x)		p - Pull Off	      
				h - Hammer On

|---------------------------------------------------------------------------|
|---------------------------------------------------------------------------|
|-----0--------------0--------------0-------------------------------7/9-9-X-|
|-----0--------------0--------------0-----------------3-3-3-5/7-7-7---------|
|-----1--------------1--------------1---------3p5-5-5-----------------------|
|-1-3---1-3-X-X--1-3---1-3-X-X--1-3---1-3-X-X-------------------------------|


Main Riff


|--------------------------------|	This is played during the all the
|--------------------------------|	verses, except the "Aw baby . . ."
|--------------------------------|	parts.
|--------------------------------|
|--------------------------1h3p1-|
|-1-3-3-1-3-3--1-3-3-1-3-3-------|


 

|---4-|---4----5-5-5-|
|---4-|---4----5-5-5-|
|-----|-----4--------|
|-3---|-3---4--------|
|-3---|-3---4--------|
|-----|--------------|


The Chords for the chorus are:


E     Dsus4 D5  Dsus4 D5    A
Hit me, you can't hurt me

N.C.
suck my kiss

E5    Dsus4 D5 Dsus4 D5 Dsus4    A
kiss me please pervert me

N.C.
stick with this

E      Dsus4        D5 Dsus4  A  N.C.
is she talking dirty

            E               Dsus4
give to me sweet sacred bliss

Dsus4           A5     N.C.
your mouth was made to suck my kiss

Lascia un commento

Facebook Auto Publish Powered By : XYZScripts.com