Teenager in love
By the way MAXI-single
Tabbed by BartvF

This is a cool rock & roll song with a fifties feel.

Intro/Verse/Chorus:

	      C#	       A#m	      F#	     G#

	e-----x---x----x----6--8---6----2--4---2---4--6---4---
	B-----9---11---9----6--6---6----2--2---2---4--4---4---
	G-----10--10---10---6--6---6----3--3---3---5--5---5---
	D-----11--11---11---8--8---8----4--4---4---6--6---6---
	A-----x---x----x----x--x---x----x--x---x---x--x---x---
	E-----x---x----x----x--x---x----x--x---x---x--x---x---


Right after "Why must I be a teenager in love" play the notes: G#  A#  C and then return to the intro/verse part.



Bridge:	G#	C#
		
       e-----8---9---8----9---11---9----
       B-----9---8---9----9---9----9----
       G-----8---8---8----10--10---10---
       D-----x---x---x----11--11---11---
       A------------------x---x----x----
       E--------------------------------


The last time you play the G# from the intro/verse/chorus part, it has a different rhythm, you'll notice when you hear the song.


End on the C# from the intro/verse/chorus part.

Lascia un commento

Facebook Auto Publish Powered By : XYZScripts.com