Tell me baby
Bass part by Michael Balzary (Flea)
Tabbed by Dan Bogosian (UtBDan)
Visit UtBDan's band at:

Ah, tell me baby. One of the few good modern Flea slap songs.

VERSE:
  P   S  P    SSP   SP   SP
G----------------------------|
D-3h5----3h5----2----2----2--|
A----------------------------|
E-----3-------00----0----0---|

  P   S  P    SSP   SP   SP
G----------------------------|
D-3h5----3h5----2----2----2--|
A----------------------------|
E-----3-------00----0----0---|

  P   S  P    SSP   SP   SP
G----------------------------|
D-3h5----3h5----2----2----2--|
A----------------------------|
E-----3-------00----0----0---|

G--------|
D--------|
A--------|
E-0--2---|

CHORUS:
  S  SPPS  S P S   S  SPPS  S P S
G-----22-----5----------------2---|
D----------------------55---------|
A-0--0--0--3---3------------0-----|
E------------------3--3--3------0-|

  S  SPPS  S P S   S  SPPS  S P S
G-----22-----5----------------7---|
D----------------------55---------|
A-0--0--0--3---3------------5---5-|
E------------------3--3--3--------|

  S  SPPS  S P S   S  SPPS  S P S
G-----22-----5----------------2---|
D----------------------55---------|
A-0--0--0--3---3------------0-----|
E------------------3--3--3------0-|

  S  SPPS  S P S  S  PS  PPS PPS
G-----22-----5-------7---77--77--|
D--------------------------------|
A-0--0--0--3---3--5---5----5---5-|
E--------------------------------|

For the solo, repeat the verse.
WP Facebook Auto Publish Powered By : XYZScripts.com