Tell Me Baby
*Tabbed by 1550

Intro (fingers & pick):

E|---------------------------------------------------------------------|
B|------1----------1----------0------1---------------------------------|
G|--2----------0----------0--------------2-----------------------------|
D|--3------------------------------------------------------------------|
A|-------------3---------------------0---------------------------------|
E|------------------------3--------------------------------------------|

   [F]        [C]        [G]        [Am]

E|-----------------------------------1---------------------------------|
B|------1----------1----------0------3---------------------------------|
G|--2----------0----------0----------2---------------------------------|
D|--3--------------------------------0---------------------------------|
A|-------------3---------------------0---------------------------------|
E|------------------------3--------------------------------------------|

   [F]        [C]        [G]       [Dm/A]

E|---------------------------------------------------------------------|
B|------1----------1----------0------1h3p1-----------------------------|
G|--2----------0----------0----------2----2----------------------------|
D|--3------------------------------------------------------------------|
A|-------------3---------------------0---------------------------------|
E|------------------------3--------------------------------------------|

   [F]        [C]        [G]        [Am]

E|------------------------1-------------------------------------------||
B|------1----------1------0-------------------------------------------||
G|--2----------0----------0-------------------------------------------||
D|--3---------------------0-------------------------------------------||
A|-------------3----------2-------------------------------------------||
E|------------------------3-------------------------------------------||

   [F]        [C]        [G7]


Verse Riff:

E|---------------------------------------------------------------------|
B|-----------------x----x--------x-x----[x3]---------------------------|
G|--12--14------12-x-14-x--------x-x-----------------------------------|
D|----------14-----x----x-14-14--x-x-----------------------------------|
A|---------------------------------------------------------------------|
E|---------------------------------------------------------------------|

E|--------------------------------------------------------------------||
B|--------------13p12----x--------------------------------------------||
G|--12--14------------14-x--12h14~~~----------------------------------||
D|----------14-----------x--------------------------------------------||
A|--------------------------------------------------------------------||
E|--------------------------------------------------------------------||

2nd Verse Riff:


E|--12-x-12--x-x-12-x-x-12-12-x-12-12--x-x-----------------------------|
B|--12-x-12--x-x-12-x-x-12-12-x-12-12--x-x-----------------------------|
G|--12-x-12--x-x-12-x-x-12-12-x-12-12--x-x-----------------------------|
D|--14-x-14--x-x-14-x-x-14-12-x-14-14--x-x-----------------------------|
A|---------------------------------------------------------------------|
E|---------------------------------------------------------------------|

   [Em]

E|--12-x-12--x-x-12-x-x-12-x-x-7-7--x-x--------------------------------|
B|--12-x-12--x-x-12-x-x-12-x-x-8-8--x-x--------------------------------|
G|--12-x-12--x-x-12-x-x-12-x-x-9-9--x-x--------------------------------|
D|--14-x-14--x-x-14-x-x-14-x-x------x-x--------------------------------|
A|---------------------------------------------------------------------|
E|---------------------------------------------------------------------|

   [Em]                       [Em]

E|--12-x-12--x-x-12-x-x-12-x-x-12-12--x-x------------------------------|
B|--12-x-12--x-x-12-x-x-12-x-x-12-12--x-x------------------------------|
G|--12-x-12--x-x-12-x-x-12-x-x-12-12--x-x------------------------------|
D|--14-x-14--x-x-14-x-x-14-x-x-14-14--x-x------------------------------|
A|---------------------------------------------------------------------|
E|---------------------------------------------------------------------|

   [Em]

E|--12-x-12--x-x-15-15-15-15-15-15-15-15------------------------------||
B|--12-x-12--x-x-15-15-15-15-15-15-15-15------------------------------||
G|--12-x-12--x-x-16-16-16-16-16-16-16-16------------------------------||
D|--14-x-14--x-x------------------------------------------------------||
A|--------------------------------------------------------------------||
E|--------------------------------------------------------------------||

   [Em]         [G]

Chorus:

E|------ 8-----------8----------7------8-------------------------------|
B|--10-----------8----------8----------10------------------------------|
G|--10------10---9------9---7------7--------9--9-----------------------|
D|-(10)--------------------(5)--------(7)------------------------------|
A|--------------(10)---------------------------------------------------|
E|---------------------------------------------------------------------|

   [F]          [C]        [G]        [Am]


E|------ 8-----------8----------7------13-------12---------------------|
B|--10-----------8----------8----------13-------13---------------------|
G|--10------10---9------9---7--------------14-------14-----------------|
D|-(10)--------------------(5)-----------------------------------------|
A|--------------(10)---------------------------------------------------|
E|---------------------------------------------------------------------|

   [F]          [C]        [G]        [F]      [Am]


E|------ 8-----------8----------7------8-------------------------------|
B|--10-----------8----------8----------10------------------------------|
G|--10------10---9------9---7------7--------9--9-----------------------|
D|-(10)--------------------(5)--------(7)------------------------------|
A|--------------(10)---------------------------------------------------|
E|---------------------------------------------------------------------|

   [F]          [C]        [G]        [Am]

E|------ 8-----------8--13-13-13-13-13-13-13-13-13-13-13-13-13-13-13-13-||
B|--10-----------8------13-13-13-13-13-13-13-13-13-13-13-13-13-13-13-13-||
G|--10------10---9------14-14-14-14-14-14-14-14-14-14-14-14-14-14-14-14-||
D|-(10)-----------------12-12-12-12-12-12-12-12-12-12-12-12-12-12-12-12-||
A|--------------(10)----------------------------------------------------||
E|----------------------------------------------------------------------||

   [F]          [C]    [F/D]   

E|--end on-----8~~~---------------------------------------------------||
B|-------------10~~---------------------------------------------------||
G|-------------9~~~---------------------------------------------------||
D|--------------------------------------------------------------------||
A|--------------------------------------------------------------------||
E|--------------------------------------------------------------------||

Lascia un commento

WP Facebook Auto Publish Powered By : XYZScripts.com