The Brothers Cup
From the album Freaky Styley
and What Hits?!?

intro, verse and most of the song.
g--------------------------|-----------------------------|
d--------------------------|-------------------7--7-5--|
a-----5--3--2--3-3-0---|---5-5--3-2---------------|
d--------------------------|-----------------------------|

g-------------------------|-----------------------------|
d-------------------------|--3-------5-3-6-5-3------|
a----5--3--2--3-3-0--|--------------------------5--|
d-------------------------|-----------------------------|

chorus
g----------------------------------------------------
d----------------------------------------------------
a--5--3--1---------------5--3--1--3-3-1-------
d------------5--3--5------------------------------

ending-this part is slapped
g---------------------------------------------------
d---------------------------------------------------
a--------------------------------------55-7777- <-- flea plays this
d---0-00-00-00---0-00-00-00--------------     rarely

Lascia un commento

Facebook Auto Publish Powered By : XYZScripts.com