The Brothers Cup

Riff

e-|--7--5-----------------------7--5----------------------|
B-|--7--5-----------------------7--5----------------------|
G-|------------5---7-5-------------------5--5-5--5-5-5----|
D-|---------------------8-8-5-----------------------------|
A-|----------5-------------------------5------------------|
E-|-------------------------------------------------------|

Refrain

e-|------------------------------------------|
B-|------------------------------------------|
G-|------------------------------------------|
D-|------------------------------------------|
A-|--5--3--1------------5--3--1--3-3-1-------|
E-|-----------3--1--3------------------------|

Pont

e-|------------------------------------------|
B-|---------------------7@-------------------|
G-|--7--7--7---7-7-5-7-----------------------|
D-|------------------------------------------|
A-|------------------------------------------|
E-|------------------------------------------|


Tablatures de Joe Le Tordu.

Lascia un commento

WP Facebook Auto Publish Powered By : XYZScripts.com