The Righteous And The Wicked
From the album: Blood sugar sex magic


E|--10-10xx10-10-10-10-x-------|--10-10xx10-10x10-10---------|
B|--10-10xx10-10-10-10-x-------|--10-10xx10-10x10-10---------|
G|-----------------------------|-----------------------10-9--|
D|------------------------7-9--|------------------------9-9--|
A|-----------------------------|-----------------------------|
E|-----------------------------|-----------------------------|


"The chorus"
E|----------------------------------6-6-x-6-
B|--7b-----7b------7----------------5-5-x-5-
G|--7b-----7b------7h9--------------5-5-x-5-
D|-----9~-----9~-------9-7-9~---7-9---------
A|------------------------------------------
E|------------------------------------------

"the other chorus part"
E|-7-7-7-7-7-7-7-7--7-7-7-7-7-7-7-7--4-4-4-4-4-4-4-4--6--6--6-
B|-7-7-7-7-7-7-7-7--6-6-6-6-6-6-6-6--3-3-3-3-3-3-3-3--5--5--5-
G|-7-7-7-7-7-7-7-7--7-7-7-7-7-7-7-7--4-4-4-4-4-4-4-4--6--6--6-
D|------------------------------------------------------------
A|------------------------------------------------------------
E|------------------------------------------------------------

"and there is.......you can call it a solo"
E|--------------------------------------------------
B|--------------------------------------------------
G|--------------------------------------------------
D|--------------------------------------------------
A|-5b7r5-----5b7r5-----5h7p5---------------5b7r5----
E|--------7---------7--------7-5--2-0-2-5---------7-

Tabbed by : Karim Houari
E-mail: somyka@colba.net

Lascia un commento

WP Facebook Auto Publish Powered By : XYZScripts.com