The Zephyr Song - Bass tab

From the Album "By the Way"
Tabbed by Tim Marti (mynameisgreat@hotmail.com)

Normal tuning

I'm doing every line of this song because it is a great single and every 
variation
speaks a note of harmony   note: it is hard, and can be played with fingers 
or pick

Intro: (x1)
G-|---------|---------|---------|---------|
D-|-7-------|-5-------|---------|---------|
A-|---------|---------|-7-------|-8-------|
E-|---------|---------|---------|---------|

Verse1: (x1)
G-|-------------|-------------|-------------|-------------|
D-|-7--7-9--9-7-|-5--5-7--7-5-|------9--9---|-------------|
A-|-------------|-------------|-7--7------7-|-8--8------8-|
E-|-------------|-------------|-------------|------8--8---|

G-|-------------|-------------|-------------|---------------|
D-|-7--7-9--9-7-|5--5-7--7-5-|------9--9---|---------------|
A-|-------------|-------------|/7--7------7-|-8--8------8-10|
E-|-------------|-------------|-------------|------8--8-----|

G-|-------------|------7--7---|-------------|--------------|
D-|-7--7-9--9-7-|-5--5------5-|------9--9---|---------7-7--|
A-|-------------|-------------|-7--7------7-|-8--8----8-8--|
E-|-------------|-------------|-------------|------8-------|
							let 'em ring
G-|-------------|--------------|----------------|--------------|----------|
D-|-7--7-9--9-7-|-5--5-7--x7-5-|--------9--9----|---9-10~~~~~~~|~~~~~~~~--|
A-|-------------|--------------|xx7--x7------7-8|-8------8-8~~~|~~~~~~~~--|
E-|-------------|--------------|----------------|--------------|----------|

Chorus1:      		Try not to touch the open and let it ring
G-|----11-----14----|11---14----11---|-0~~~~~~~~~~-----|-----14--16--14--|
D-|-12-----12-----12|---------12--12-|---21-----19--/14|---14--14--14----|
A-|-----------------|----------------|-------17--------|-12--------------|
E-|-----------------|----------------|-----------------|-----------------|

G-|----11-----14----|11---14----11---|-0~~~~~~~~~~-----14|-----14--16------|
D-|-12-----12-----12|---------12--12-|---21-----19--/14--|---14--14--14-14-|
A-|-----------------|----------------|-------17----------|-12--------------|
E-|-----------------|----------------|-------------------|-----------------|

Verse2:
G-|---------------|------4--4---|--------------|-----------------|
D-|-7--x7-9--9-7-9|-5--5-7--7-5-|-------9--9---|-----------------|
A-|---------------|-------------|-7--x7------7-|xx8--x8------8/12|
E-|---------------|-------------|--------------|--------8--8-----|

G-|--------------|--------------|-------------|----------------|
D-|-7--x7-9--9-7-|xx5--5-7--7-5-|------9--9---|----------------|
A-|--------------|--------------|-7--7------7-|-8--x8------8-10|
E-|--------------|--------------|-------------|-------8--8-----|
							let 'em ring
G-|-------9--9---|-------7--7---|---------------|--------------|----------|
D-|-7--x7------7-|-5--x5------5-|-------9--9----|---9-10~~~~~~~|~~~~~~~~--|
A-|--------------|--------------|-7--x7------7--|/8------8-8~~~|~~~~~~~~--|
E-|--------------|--------------|---------------|--------------|----------|

Chorus2: 			Try not to touch the open and let it ring
G-|----11-----14----|11-----14----11---|-0~~~~~~~~~~-----14|-----14-16-14--14-|
D-|-12-----12-----12|----12-----12--12-|---21-----19--/14--|---14--------14---|
A-|-----------------|------------------|-------17----------|-12---------------|
E-|-----------------|------------------|-------------------|------------------|

G-|----11-----14----|11-----14----11---|-0~~~~~~~~~~-----14|-----14-16--14---|
D-|-12-----12-----12|----12-----12--12-|---21-----19--/14--|---14---------14-|
A-|-----------------|------------------|-------17----------|-12--------------|
E-|-----------------|------------------|-------------------|-----------------|

G-|----11-----14----|11----14--12-11---|-0---0-------|-18--18--16--18--|
D-|-12-----12-----12|----12--12-----12-|---------/14-|-19--19--17--19--|
A-|-----------------|------------------|-------------|-----------------|
E-|-----------------|------------------|-------------|-----------------|

G-|----11------|-----12--11---|-0~~~~~~~~~~------|-------------|
D-|-12-----12--|-----------12-|---21-----19--/14-|12/14~~~~~~~-|
A-|------------|--------------|-------17---------|-------------|
E-|------------|---10---------|------------------|10/12~~~~~~~-|

Guitar Solo: (x2) + variation on last bar 2nd time through
G-|-14--1414-14-14-14-14|-12--1212-12-12-12-12/|
D-|-14--1414-14-14-14-14|-12--1212-12-12-12-12/|
A-|-12--1212-12-12-12-12|-10--1010-10-10-10-10/|
E-|----------------------|----------------------|

G-|-12--1212-12--12-12/|----------------------|
D-|-12--1212-12--12-12/|-15--1515-15-15-15-15-|
A-|-14--1414-14--14-14/|-15--1515-15-15-15-15-|
E-|--------------------|----------------------|

  2nd time through     |-----------------------|
  Use this bar instead |-15--1515-15-15-15-----|
  of the the last one  |-15--1515-15-15-15-12--|
		       |---------------------12|


Verse3:  Similar to first but octave lower
G-|----------------|----------------|--------------|---------------|
D-|----------------|----------------|--------------|---------------|
A-|-0-x0-222-0-0-xx|----------------|-----2-2------|-----3/8-8-8-xx|
E-|----------------|-3-x3-5--x3-3-xx|-0-x0---0-0-xx|-1-x1----------|

G-|----------------|----------------|------------|------------|
D-|----------------|----------------|------------|-3~~~~~~~~--|
A-|-0-x0-222-0-0-xx|----------------|-----2-2----|------------|
E-|----------------|-3-x3-5--x3-3-xx|-0-x0---0-0-|-1~~~~~~~~--|

Chorus3:
G-|----11-----14----|11---14----11---|-0~~~~~~~~~~-----|-----14--16--14--|
D-|-12-----12-----12|---------12--12-|---21-----19--/14|---14--14--14----|
A-|-----------------|----------------|-------17--------|-12--------------|
E-|-----------------|----------------|-----------------|-----------------|

G-|----11-----14----|11-----14----11---|-0~~~~~~~~~~-----14|-----14--16-14---|
D-|-12-----12-----12|----12-----12--12-|---21-----19--/14--|---14--14-----14-|
A-|-----------------|------------------|-------17----------|-12--------------|
E-|-----------------|------------------|-------------------|-----------------|

G-|----11-----14----|11----14--12-11---|-0---0-------|-18--18--16--18--|
D-|-12-----12-----12|----12--12-----12-|---------/14-|-19--19--17--19--|
A-|-----------------|------------------|-------------|-----------------|
E-|-----------------|------------------|-------------|-----------------|

G-|----11-----14----|11-----14----11---|-0~~~~~~~~~~-----14|-----14--16-14---|
D-|-12-----12-----12|----12-----12--12-|---21-----19--/14--|---14---------14-|
A-|-----------------|------------------|-------17----------|-12--------------|
E-|-----------------|------------------|-------------------|-----------------|

G-|----11-----14----|11---14----11---|-0~~~~~~~~~~-----14|----------16--14-|
D-|-12-----12-----12|---------12--12-|---21-----19--/14--|---14-14----14---|
A-|-----------------|----------------|-------17----------|-12-----12-------|
E-|-----------------|----------------|-------------------|-----------------|

G-|----11-----14----|11--12-11----11|-0~~~~~~~~~~-----14|------------16-14---|
D-|-12-----12-----12|-----------12--|---21-----19--/14--|-14-14141414-----14-|
A-|-----------------|---------------|-------17----------|--------------------|
E-|-----------------|---------------|-------------------|--------------------|

G-|----11-----14--|----12----12-11----12-11-|-0~~~~~~~~~~-----14|-------------16/14-|
D-|-12-----12-----|--12----12-------12------|---21-----19--/14--|--14-14-16/14------|
A-|---------------|-------------------------|-------17----------|-------------------|
E-|---------------|-------------------------|-------------------|-------------------|

G-|----11-----14----|11--x12-11--12-11-|-0~~~~~~~~~~-----14|----14---16-14---|
D-|-12-----12-----12|------------------|---21-----19--/14--|----14--------14-|
A-|-----------------|------------------|-------17----------|-12----12--------|
E-|-----------------|------------------|-------------------|-----------------|
Endnote:
G-|--------------|
D-|-0~~~~~~~~~~--|			
A-|--------------|			
E-|--------------|			
WP Facebook Auto Publish Powered By : XYZScripts.com