They're Red Hot
from "Blood Sugar Sex Magik"
Music by Robert Johnson,
Recorded by KiedisFleaFruscianteSmith
Warner Bros. Music 1991


transcribed by Val Nalini

Chorus

Hot tamales , they're red hot...
|-------0------------|------3---3------3---3----2--|--2---2----------------1---|
|-------1---------4--|------2---2------2---2----1--|--1---1----------------0---|
|-------0---------4--|------0---0------0---0----2--|--2---2---------0------0---|
|-------2---------4--|------2---2------2---2-------|--0---0---------0----------|
|---3---3-----2---2--|--0--------------------------|----------------X----------|
|--------------------|-----------------------------|----------------3----------|

|--------0--0--0--0--0--|-------0----------------|------3---3------3---3---2--|
|--------1--1--1--1--1--|-------1-----------4----|------3---3------3---3---1--|
|---0----0--0--0--0--0--|-------0-----------4----|------0---0------0---0---2--|
|---2----2--2--2--2--2--|-------2-----------4----|------2---2------2---2------|
|---3-------------------|--3----3------2----2----|--0-------------------------|
|-----------------------|------------------------|----------------------------|

|---2----2----2---2---2---1---|--1----1-----1---1-----X--|
|---1----1----1---1---1---0---|--0----0-----0---0-----X--|
|---2----2----2---2---2---0---|--0----0-----0---0-----X--|
|---0----0----0---0---0---0---|--0----0-----0---0--------|
|-----------------------------|--X-----------------------|
|-----------------------------|--3-----------------------|

Verse

I've got a girl say she's long and tall...
|--0---------------0--|--5--------------5--|--4---------------4--|
|--1---------------1--|--6--------------6--|--6---------------6--|
|--0---------------0--|--5--------------5--|--5---------------5--|
|--2---------------2--|--7--------------7--|--6---------------6--|
|--3---------------3--|--------------------|---------------------|
|---------------------|--------------------|---------------------|

Ending

|--0---0---0-|
|--1---1---1-|
|--0---0---0-|
|--2---2---2-|
|--3---3---3-|
|------------|

Corrections and comments at davesaddiction@hotmail.com

Lascia un commento

Facebook Auto Publish Powered By : XYZScripts.com