This Is The Place
from "By The Way"
Music by KiedisFleaFruscianteSmith
Warner Bros. Music 2002


TABBED BY - MARK CHESSER (CHESSER@BLUEYONDER.CO.UK)

Note:

This song uses a combonation of Chorus, Phase and compression effects on the guitar.


Verse:

Mute strings at 12th fret for most of verse and play 8ths
and play then following chord

E:---12-----
B:---13-----
G:---14-----
D:---14-----
A:----------
E:----------

Chorus:

E:-------------12--------------------15-12----------------12-------------
B:----------------13-----------------------13----------------13----------
G:---------14--------14----------14-------------------14--------14-------
D:------14--------------------14-------------------14--------------------
A:----12--------------------12-------------------12----------------------
E:-----------------------------------------------------------------------

E:--0-----0-----0-----0-----0----
B:--15----15----13----15----13---
G:--14----14----14----14----14---
D:--0-----0-----0-----0-----0----
A:-------------------------------
E:-------------------------------

Bridge Solo:

E:-----------------------------------------------------------
B:-----------------------------------------------------------
G:-------------------14--------------------------------------
D:---12--14------12----------12--14--12--10-----10--12--10---
A:-----------------------------------------------------------
E:-----------------------------------------------------------

E:-----------------------------------------------------------
B:-----------------------------------------------------------
G:-------------------14--------------------------------------
D:---12--14------12----------12--14--12--10-----10--12-------
A:------------------------------------------------------12---
E:-----------------------------------------------------------

Accoustic Guitar Bridge:

Just these 3 Chords

     F     C     D
E:---1-----0-----5-----------------
B:---1-----1-----5-----------------
G:---2-----0-----7-----------------
D:---3-----2-----7-----------------
A:---3-----3-----5-----------------
E:---1-----------------------------

Solo Out:

E:-----------------------------------------------------------
B:-----------------------------------------------------------
G:-------------------14--------------------------------------
D:---12--14------12----------12--14--12--10-----10--12--10---
A:-----------------------------------------------------------
E:-----------------------------------------------------------

E:-----------------------------------------------------------
B:-----------------------------------------------------------
G:-------------------14--------------------------------------
D:---12--14------12----------12--14--12--10-----10--12-------
A:------------------------------------------------------12---
E:-----------------------------------------------------------
WP Facebook Auto Publish Powered By : XYZScripts.com