Throw away your televition 
Album: By the way
Tuning: Standard (EADGBe)

Tabbed by Knut Zetterstrøm

This is a great song by the Red Hot Chili Peppers!

 Verse:
|-----------------------------------------------------12-12-12-12-12--|
|-----------------------------------------------------12-12-12-12-12--|
|-----------------------------------------------------12-12-12-12-12--|
|-------5-5--7-7---------5-5--7-7-------5-5--7-7------12-12-12-12-12--|
|--7-7--------------7-7------------7-7----------------12-12-12-12-12--|
|-----------------------------------------------------12-12-12-12-12--|


|---------------------------------------------------------------------|
|---------------------------------------------------------------------|
|---------------------------------------------------------------------|
|---------------------------------------------------------------------|
|-x-x-x-x-x-x-x-x-x-x-x-x-x-x-x-x-x-x-x-x-x-x-x-x-x-x-x-x-x-----------|
|-x-x-x-x-x-x-x-x-x-x-x-x-x-x-x-x-x-x-x-x-x-x-x-x-x-x-x-x-x-----------|


|-----------------------------------------------------12-12-12-12-12--|
|-----------------------------------------------------12-12-12-12-12--|
|-----------------------------------------------------12-12-12-12-12--|
|-------5-5--7-7---------5-5--7-7-------5-5--7-7------12-12-12-12-12--|
|--7-7--------------7-7------------7-7----------------12-12-12-12-12--|
|-----------------------------------------------------12-12-12-12-12--|

 Chours:
  Am          Em          Am          Em          Am          Em 
|-0-0-0-0-0-0-------------0-0-0-0-0-0-------------0-0-0-0-0-0-------------|
|-1-1-1-1-1-1-0-0-0-0-0-0-1-1-1-1-1-1-0-0-0-0-0-0-1-1-1-1-1-1-0-0-0-0-0-0-|
|-2-2-2-2-2-2-0-0-0-0-0-0-2-2-2-2-2-2-0-0-0-0-0-0-2-2-2-2-2-2-0-0-0-0-0-0-|
|-2-2-2-2-2-2-2-2-2-2-2-2-2-2-2-2-2-2-2-2-2-2-2-2-2-2-2-2-2-2-2-2-2-2-2-2-|
|-0-0-0-0-0-0-2-2-2-2-2-2-0-0-0-0-0-0-2-2-2-2-2-2-0-0-0-0-0-0-2-2-2-2-2-2-|
|-------------------------------------------------------------------------|

  E?      G   F
|---------3-3-1-1-1-1-1-1-1-1---------------------------------------------|
|---------3-3-1-1-1-1-1-1-1-1---------------------------------------------|
|-0-0-0-0-0-0-2-2-2-2-2-2-2-2---------------------------------------------|
|-2-2-2-2-0-0-3-3-3-3-3-3-3-3---------------------------------------------|
|-2-2-2-2-2-2-3-3-3-3-3-3-3-3---------------------------------------------|
|-3-3-3-3-3-3-x-x-x-x-x-x-x-x---------------------------------------------|

 Verse:
|---------------------------------------------------------------------|
|---------------------------------------------------------------------|
|---------------------------------------------------------------------|
|---------------------------------------------------------------------|
|-x-x-x-x-x-x-x-x-x-x-x-x-x-x-x-x-x-x-x-x-x-x-x-x-x-x-x-x-x-----------|
|-x-x-x-x-x-x-x-x-x-x-x-x-x-x-x-x-x-x-x-x-x-x-x-x-x-x-x-x-x-----------|


|----3----------3-----------3-------------------------------------------|
|------3-0--------3-0---------3-0---------------------------------------|
|-2-------0-2---------0-2---------0-2--2-2-2-2-2-2-2-2-2-2-2-2----------|
|-----------------------------------------------------------------------|
|-----------------------------------------------------------------------|
|-----------------------------------------------------------------------|

 Chours:
  Am          Em          Am          Em          Am          Em 
|-0-0-0-0-0-0-------------0-0-0-0-0-0-------------0-0-0-0-0-0-------------|
|-1-1-1-1-1-1-0-0-0-0-0-0-1-1-1-1-1-1-0-0-0-0-0-0-1-1-1-1-1-1-0-0-0-0-0-0-|
|-2-2-2-2-2-2-0-0-0-0-0-0-2-2-2-2-2-2-0-0-0-0-0-0-2-2-2-2-2-2-0-0-0-0-0-0-|
|-2-2-2-2-2-2-2-2-2-2-2-2-2-2-2-2-2-2-2-2-2-2-2-2-2-2-2-2-2-2-2-2-2-2-2-2-|
|-0-0-0-0-0-0-2-2-2-2-2-2-0-0-0-0-0-0-2-2-2-2-2-2-0-0-0-0-0-0-2-2-2-2-2-2-|
|-------------------------------------------------------------------------|


  E?      G   F
|---------3-3-1-1-1-1-1-1-1-1---------------------------------------------|
|---------3-3-1-1-1-1-1-1-1-1---------------------------------------------|
|-0-0-0-0-0-0-2-2-2-2-2-2-2-2---------------------------------------------|
|-2-2-2-2-0-0-3-3-3-3-3-3-3-3---------------------------------------------|
|-2-2-2-2-2-2-3-3-3-3-3-3-3-3---------------------------------------------|
|-3-3-3-3-3-3-x-x-x-x-x-x-x-x---------------------------------------------|

 Solo (with a strage effeckt)
|-12-12-12-12-12-12-12-12------------------------------------|
|-10-10-10-10-10-10-10-10-12-12-12-12-12-12-12-12------------|
|-------------------------9--9--9--9--9--9--9--9-------------|
|------------------------------------------------------------|
|------------------------------------------------------------|
|------------------------------------------------------------|


|-10-10-10-10-10-10-10-10------------------------------------|
|-8--8--8--8--8--8--8--8---10-10-10-10-10-10-10-10-----------|
|--------------------------7--7--7--7--7--7--7--7------------|
|------------------------------------------------------------|
|------------------------------------------------------------|
|------------------------------------------------------------|

 Outro:
  Am          Em          Am          Em          Am          Em 
|-0-0-0-0-0-0-------------0-0-0-0-0-0-------------0-0-0-0-0-0-------------|
|-1-1-1-1-1-1-0-0-0-0-0-0-1-1-1-1-1-1-0-0-0-0-0-0-1-1-1-1-1-1-0-0-0-0-0-0-|
|-2-2-2-2-2-2-0-0-0-0-0-0-2-2-2-2-2-2-0-0-0-0-0-0-2-2-2-2-2-2-0-0-0-0-0-0-|
|-2-2-2-2-2-2-2-2-2-2-2-2-2-2-2-2-2-2-2-2-2-2-2-2-2-2-2-2-2-2-2-2-2-2-2-2-|
|-0-0-0-0-0-0-2-2-2-2-2-2-0-0-0-0-0-0-2-2-2-2-2-2-0-0-0-0-0-0-2-2-2-2-2-2-|
|-------------------------------------------------------------------------|

  Am          Em          Am          Em          Am          Em 
|-0-0-0-0-0-0-------------0-0-0-0-0-0-------------0-0-0-0-0-0-------------|
|-1-1-1-1-1-1-0-0-0-0-0-0-1-1-1-1-1-1-0-0-0-0-0-0-1-1-1-1-1-1-0-0-0-0-0-0-|
|-2-2-2-2-2-2-0-0-0-0-0-0-2-2-2-2-2-2-0-0-0-0-0-0-2-2-2-2-2-2-0-0-0-0-0-0-|
|-2-2-2-2-2-2-2-2-2-2-2-2-2-2-2-2-2-2-2-2-2-2-2-2-2-2-2-2-2-2-2-2-2-2-2-2-|
|-0-0-0-0-0-0-2-2-2-2-2-2-0-0-0-0-0-0-2-2-2-2-2-2-0-0-0-0-0-0-2-2-2-2-2-2-|
|-------------------------------------------------------------------------|


I'm sure this is 100% correct! It is not a hard song to play, but you'll need some
special effekts to your guitar I think..
Rock on, duude!
WP Facebook Auto Publish Powered By : XYZScripts.com